  0
SECTION
  2
HEADER
  9
$ACADVER
  1
AC1009
  9
$FILLMODE
 70
 0
  9
$SPLFRAME
 70
 1
  9
$EXTMIN
 10
0
 20
0
 30
0.0
  9
$EXTMAX
 10
41.6667
 20
41.6667
 30
0.0
  0
ENDSEC
  0
SECTION
  2
TABLES
  0
TABLE
  2
LAYER
 70
1
  0
LAYER
  2
0
 70
     0
 62
     7
  6
CONTINUOUS
  0
ENDTAB
  0
ENDSEC
  0
SECTION
  2
ENTITIES
  0
TEXT
  8
0
 62
     0
 10
0.2
 20
9.58167
 30
0.0
 40
0.25
  1
SP
 50
0
  0
TEXT
  8
0
 62
     0
 10
0.443237
 20
9.58167
 30
0.0
 40
0.25
  1
E
 50
0
  0
TEXT
  8
0
 62
     0
 10
0.56149
 20
9.58167
 30
0.0
 40
0.25
  1
C
 50
0
  0
TEXT
  8
0
 62
     0
 10
0.694804
 20
9.58167
 30
0.0
 40
0.25
  1
IFIC
 50
0
  0
TEXT
  8
0
 62
     0
 10
1.06947
 20
9.58167
 30
0.0
 40
0.25
  1
A
 50
0
  0
TEXT
  8
0
 62
     0
 10
1.19443
 20
9.58167
 30
0.0
 40
0.25
  1
T
 50
0
  0
TEXT
  8
0
 62
     0
 10
1.31607
 20
9.58167
 30
0.0
 40
0.25
  1
IO
 50
0
  0
TEXT
  8
0
 62
     0
 10
1.54421
 20
9.58167
 30
0.0
 40
0.25
  1
NS
 50
0
  0
POLYLINE
  8
0
 62
     0
 66
     1
 10
0
 20
0
 30
0.0
 70
     1
 40
0
 41
0
  0
VERTEX
  8
0
 10
0.180013
 20
9.33832
 30
0.0
 40
0
 41
0
  0
VERTEX
  8
0
 10
8.08664
 20
9.33832
 30
0.0
 40
0
 41
0
  0
VERTEX
  8
0
 10
8.08664
 20
9.34831
 30
0.0
 40
0
 41
0
  0
VERTEX
  8
0
 10
0.180013
 20
9.34831
 30
0.0
 40
0
 41
0
  0
VERTEX
  8
0
 10
0.180013
 20
9.33832
 30
0.0
 40
0
 41
0
  0
SEQEND
 8
0
  0
TEXT
  8
0
 62
     0
 10
0.2
 20
9.15167
 30
0.0
 40
0.195
  1
PRODUCT
 50
0
  0
TEXT
  8
0
 62
     0
 10
0.974306
 20
9.15167
 30
0.0
 40
0.195
  1
 S
 50
0
  0
TEXT
  8
0
 62
     0
 10
1.10706
 20
9.15167
 30
0.0
 40
0.195
  1
PECIFIC
 50
0
  0
TEXT
  8
0
 62
     0
 10
1.69311
 20
9.15167
 30
0.0
 40
0.195
  1
A
 50
0
  0
TEXT
  8
0
 62
     0
 10
1.79153
 20
9.15167
 30
0.0
 40
0.195
  1
TIONS 
 50
0
  0
TEXT
  8
0
 62
     0
 10
0.199806
 20
8.91431
 30
0.0
 40
0.195
  1
Stainless
 50
0
  0
TEXT
  8
0
 62
     0
 10
0.885678
 20
8.91431
 30
0.0
 40
0.195
  1
 S
 50
0
  0
TEXT
  8
0
 62
     0
 10
1.06895
 20
8.91431
 30
0.0
 40
0.195
  1
teel
 50
0
  0
TEXT
  8
0
 62
     0
 10
1.4656
 20
8.91431
 30
0.0
 40
0.195
  1
SL
 50
0
  0
TEXT
  8
0
 62
     0
 10
1.6326
 20
8.91431
 30
0.0
 40
0.195
  1
U
 50
0
  0
TEXT
  8
0
 62
     0
 10
1.7525
 20
8.91431
 30
0.0
 40
0.195
  1
835 
 50
0
  0
POLYLINE
  8
0
 62
     0
 66
     1
 10
0
 20
0
 30
0.0
 70
     1
 40
0
 41
0
  0
VERTEX
  8
0
 10
2.21121
 20
8.95008
 30
0.0
 40
0
 41
0
  0
VERTEX
  8
0
 10
2.21121
 20
8.94629
 30
0.0
 40
0
 41
0
  0
VERTEX
  8
0
 10
2.20865
 20
8.93604
 30
0.0
 40
0
 41
0
  0
VERTEX
  8
0
 10
2.20817
 20
8.9349
 30
0.0
 40
0
 41
0
  0
VERTEX
  8
0
 10
2.20682
 20
8.93326
 30
0.0
 40
0
 41
0
  0
VERTEX
  8
0
 10
2.20335
 20
8.9279
 30
0.0
 40
0
 41
0
  0
VERTEX
  8
0
 10
2.20101
 20
8.92437
 30
0.0
 40
0
 41
0
  0
VERTEX
  8
0
 10
2.20014
 20
8.92361
 30
0.0
 40
0
 41
0
  0
VERTEX
  8
0
 10
2.199
 20
8.9221
 30
0.0
 40
0
 41
0
  0
VERTEX
  8
0
 10
2.18913
 20
8.9171
 30
0.0
 40
0
 41
0
  0
VERTEX
  8
0
 10
2.18799
 20
8.91667
 30
0.0
 40
0
 41
0
  0
VERTEX
  8
0
 10
2.18642
 20
8.91607
 30
0.0
 40
0
 41
0
  0
VERTEX
  8
0
 10
2.17617
 20
8.91428
 30
0.0
 40
0
 41
0
  0
VERTEX
  8
0
 10
2.17279
 20
8.91428
 30
0.0
 40
0
 41
0
  0
VERTEX
  8
0
 10
2.17014
 20
8.91428
 30
0.0
 40
0
 41
0
  0
VERTEX
  8
0
 10
2.16297
 20
8.91536
 30
0.0
 40
0
 41
0
  0
VERTEX
  8
0
 10
2.16217
 20
8.91558
 30
0.0
 40
0
 41
0
  0
VERTEX
  8
0
 10
2.16081
 20
8.91575
 30
0.0
 40
0
 41
0
  0
VERTEX
  8
0
 10
2.15414
 20
8.91872
 30
0.0
 40
0
 41
0
  0
VERTEX
  8
0
 10
2.15349
 20
8.91906
 30
0.0
 40
0
 41
0
  0
VERTEX
  8
0
 10
2.15224
 20
8.919
 30
0.0
 40
0
 41
0
  0
VERTEX
  8
0
 10
2.14854
 20
8.92042
 30
0.0
 40
0
 41
0
  0
VERTEX
  8
0
 10
2.14762
 20
8.92264
 30
0.0
 40
0
 41
0
  0
VERTEX
  8
0
 10
2.14719
 20
8.92296
 30
0.0
 40
0
 41
0
  0
VERTEX
  8
0
 10
2.14671
 20
8.92279
 30
0.0
 40
0
 41
0
  0
VERTEX
  8
0
 10
2.14442
 20
8.92389
 30
0.0
 40
0
 41
0
  0
VERTEX
  8
0
 10
2.14387
 20
8.92643
 30
0.0
 40
0
 41
0
  0
VERTEX
  8
0
 10
2.14372
 20
8.92665
 30
0.0
 40
0
 41
0
  0
VERTEX
  8
0
 10
2.14367
 20
8.92654
 30
0.0
 40
0
 41
0
  0
VERTEX
  8
0
 10
2.14253
 20
8.92665
 30
0.0
 40
0
 41
0
  0
VERTEX
  8
0
 10
2.14225
 20
8.92964
 30
0.0
 40
0
 41
0
  0
VERTEX
  8
0
 10
2.14219
 20
8.9299
 30
0.0
 40
0
 41
0
  0
VERTEX
  8
0
 10
2.14208
 20
8.93007
 30
0.0
 40
0
 41
0
  0
VERTEX
  8
0
 10
2.14176
 20
8.93354
 30
0.0
 40
0
 41
0
  0
VERTEX
  8
0
 10
2.14176
 20
8.93468
 30
0.0
 40
0
 41
0
  0
VERTEX
  8
0
 10
2.14176
 20
8.93468
 30
0.0
 40
0
 41
0
  0
VERTEX
  8
0
 10
2.14176
 20
8.93815
 30
0.0
 40
0
 41
0
  0
VERTEX
  8
0
 10
2.14176
 20
8.93815
 30
0.0
 40
0
 41
0
  0
VERTEX
  8
0
 10
2.14176
 20
8.93815
 30
0.0
 40
0
 41
0
  0
VERTEX
  8
0
 10
2.14214
 20
8.94043
 30
0.0
 40
0
 41
0
  0
VERTEX
  8
0
 10
2.14219
 20
8.94054
 30
0.0
 40
0
 41
0
  0
VERTEX
  8
0
 10
2.14219
 20
8.94054
 30
0.0
 40
0
 41
0
  0
VERTEX
  8
0
 10
2.14296
 20
8.94163
 30
0.0
 40
0
 41
0
  0
VERTEX
  8
0
 10
2.14307
 20
8.94163
 30
0.0
 40
0
 41
0
  0
VERTEX
  8
0
 10
2.14307
 20
8.94129
 30
0.0
 40
0
 41
0
  0
VERTEX
  8
0
 10
2.14333
 20
8.94026
 30
0.0
 40
0
 41
0
  0
VERTEX
  8
0
 10
2.14393
 20
8.94206
 30
0.0
 40
0
 41
0
  0
VERTEX
  8
0
 10
2.14415
 20
8.94206
 30
0.0
 40
0
 41
0
  0
VERTEX
  8
0
 10
2.14415
 20
8.94206
 30
0.0
 40
0
 41
0
  0
VERTEX
  8
0
 10
2.14665
 20
8.94026
 30
0.0
 40
0
 41
0
  0
VERTEX
  8
0
 10
2.14697
 20
8.93989
 30
0.0
 40
0
 41
0
  0
VERTEX
  8
0
 10
2.14686
 20
8.93901
 30
0.0
 40
0
 41
0
  0
VERTEX
  8
0
 10
2.14849
 20
8.93614
 30
0.0
 40
0
 41
0
  0
VERTEX
  8
0
 10
2.15142
 20
8.93554
 30
0.0
 40
0
 41
0
  0
VERTEX
  8
0
 10
2.15196
 20
8.93511
 30
0.0
 40
0
 41
0
  0
VERTEX
  8
0
 10
2.15175
 20
8.93457
 30
0.0
 40
0
 41
0
  0
VERTEX
  8
0
 10
2.15397
 20
8.93186
 30
0.0
 40
0
 41
0
  0
VERTEX
  8
0
 10
2.15842
 20
8.93078
 30
0.0
 40
0
 41
0
  0
VERTEX
  8
0
 10
2.15913
 20
8.93033
 30
0.0
 40
0
 41
0
  0
VERTEX
  8
0
 10
2.1595
 20
8.92979
 30
0.0
 40
0
 41
0
  0
VERTEX
  8
0
 10
2.1665
 20
8.92817
 30
0.0
 40
0
 41
0
  0
VERTEX
  8
0
 10
2.16889
 20
8.92817
 30
0.0
 40
0
 41
0
  0
VERTEX
  8
0
 10
2.16889
 20
8.92817
 30
0.0
 40
0
 41
0
  0
VERTEX
  8
0
 10
2.17589
 20
8.92925
 30
0.0
 40
0
 41
0
  0
VERTEX
  8
0
 10
2.17649
 20
8.92947
 30
0.0
 40
0
 41
0
  0
VERTEX
  8
0
 10
2.17649
 20
8.9305
 30
0.0
 40
0
 41
0
  0
VERTEX
  8
0
 10
2.18192
 20
8.93317
 30
0.0
 40
0
 41
0
  0
VERTEX
  8
0
 10
2.18235
 20
8.9336
 30
0.0
 40
0
 41
0
  0
VERTEX
  8
0
 10
2.18235
 20
8.9336
 30
0.0
 40
0
 41
0
  0
VERTEX
  8
0
 10
2.183
 20
8.93576
 30
0.0
 40
0
 41
0
  0
VERTEX
  8
0
 10
2.18604
 20
8.93929
 30
0.0
 40
0
 41
0
  0
VERTEX
  8
0
 10
2.18625
 20
8.93989
 30
0.0
 40
0
 41
0
  0
VERTEX
  8
0
 10
2.18625
 20
8.93989
 30
0.0
 40
0
 41
0
  0
VERTEX
  8
0
 10
2.18685
 20
8.94239
 30
0.0
 40
0
 41
0
  0
VERTEX
  8
0
 10
2.18756
 20
8.94689
 30
0.0
 40
0
 41
0
  0
VERTEX
  8
0
 10
2.18756
 20
8.94835
 30
0.0
 40
0
 41
0
  0
VERTEX
  8
0
 10
2.18718
 20
8.94874
 30
0.0
 40
0
 41
0
  0
VERTEX
  8
0
 10
2.18593
 20
8.95665
 30
0.0
 40
0
 41
0
  0
VERTEX
  8
0
 10
2.1856
 20
8.95725
 30
0.0
 40
0
 41
0
  0
VERTEX
  8
0
 10
2.18506
 20
8.95779
 30
0.0
 40
0
 41
0
  0
VERTEX
  8
0
 10
2.18093
 20
8.96311
 30
0.0
 40
0
 41
0
  0
VERTEX
  8
0
 10
2.18039
 20
8.96354
 30
0.0
 40
0
 41
0
  0
VERTEX
  8
0
 10
2.17919
 20
8.96343
 30
0.0
 40
0
 41
0
  0
VERTEX
  8
0
 10
2.17551
 20
8.96528
 30
0.0
 40
0
 41
0
  0
VERTEX
  8
0
 10
2.17367
 20
8.96821
 30
0.0
 40
0
 41
0
  0
VERTEX
  8
0
 10
2.17301
 20
8.96853
 30
0.0
 40
0
 41
0
  0
VERTEX
  8
0
 10
2.17231
 20
8.9681
 30
0.0
 40
0
 41
0
  0
VERTEX
  8
0
 10
2.16835
 20
8.96935
 30
0.0
 40
0
 41
0
  0
VERTEX
  8
0
 10
2.16525
 20
8.97293
 30
0.0
 40
0
 41
0
  0
VERTEX
  8
0
 10
2.16456
 20
8.97331
 30
0.0
 40
0
 41
0
  0
VERTEX
  8
0
 10
2.16308
 20
8.97342
 30
0.0
 40
0
 41
0
  0
VERTEX
  8
0
 10
2.15696
 20
8.97808
 30
0.0
 40
0
 41
0
  0
VERTEX
  8
0
 10
2.15631
 20
8.97851
 30
0.0
 40
0
 41
0
  0
VERTEX
  8
0
 10
2.15554
 20
8.97831
 30
0.0
 40
0
 41
0
  0
VERTEX
  8
0
 10
2.14947
 20
8.98481
 30
0.0
 40
0
 41
0
  0
VERTEX
  8
0
 10
2.14893
 20
8.98546
 30
0.0
 40
0
 41
0
  0
VERTEX
  8
0
 10
2.14779
 20
8.986
 30
0.0
 40
0
 41
0
  0
VERTEX
  8
0
 10
2.14404
 20
8.99371
 30
0.0
 40
0
 41
0
  0
VERTEX
  8
0
 10
2.14372
 20
8.99457
 30
0.0
 40
0
 41
0
  0
VERTEX
  8
0
 10
2.14328
 20
8.99457
 30
0.0
 40
0
 41
0
  0
VERTEX
  8
0
 10
2.14199
 20
8.99914
 30
0.0
 40
0
 41
0
  0
VERTEX
  8
0
 10
2.14176
 20
9.00532
 30
0.0
 40
0
 41
0
  0
VERTEX
  8
0
 10
2.14176
 20
9.00738
 30
0.0
 40
0
 41
0
  0
VERTEX
  8
0
 10
2.14176
 20
9.01074
 30
0.0
 40
0
 41
0
  0
VERTEX
  8
0
 10
2.1441
 20
9.01986
 30
0.0
 40
0
 41
0
  0
VERTEX
  8
0
 10
2.14458
 20
9.02083
 30
0.0
 40
0
 41
0
  0
VERTEX
  8
0
 10
2.14486
 20
9.02111
 30
0.0
 40
0
 41
0
  0
VERTEX
  8
0
 10
2.15196
 20
9.03039
 30
0.0
 40
0
 41
0
  0
VERTEX
  8
0
 10
2.15283
 20
9.03103
 30
0.0
 40
0
 41
0
  0
VERTEX
  8
0
 10
2.15278
 20
9.03125
 30
0.0
 40
0
 41
0
  0
VERTEX
  8
0
 10
2.15728
 20
9.0339
 30
0.0
 40
0
 41
0
  0
VERTEX
  8
0
 10
2.16422
 20
9.03678
 30
0.0
 40
0
 41
0
  0
VERTEX
  8
0
 10
2.16542
 20
9.03711
 30
0.0
 40
0
 41
0
  0
VERTEX
  8
0
 10
2.16581
 20
9.03651
 30
0.0
 40
0
 41
0
  0
VERTEX
  8
0
 10
2.17182
 20
9.03728
 30
0.0
 40
0
 41
0
  0
VERTEX
  8
0
 10
2.17887
 20
9.03928
 30
0.0
 40
0
 41
0
  0
VERTEX
  8
0
 10
2.18126
 20
9.03928
 30
0.0
 40
0
 41
0
  0
VERTEX
  8
0
 10
2.18126
 20
9.03928
 30
0.0
 40
0
 41
0
  0
VERTEX
  8
0
 10
2.18918
 20
9.03819
 30
0.0
 40
0
 41
0
  0
VERTEX
  8
0
 10
2.18994
 20
9.03797
 30
0.0
 40
0
 41
0
  0
VERTEX
  8
0
 10
2.19006
 20
9.03717
 30
0.0
 40
0
 41
0
  0
VERTEX
  8
0
 10
2.19331
 20
9.0351
 30
0.0
 40
0
 41
0
  0
VERTEX
  8
0
 10
2.19754
 20
9.03526
 30
0.0
 40
0
 41
0
  0
VERTEX
  8
0
 10
2.19819
 20
9.03494
 30
0.0
 40
0
 41
0
  0
VERTEX
  8
0
 10
2.19874
 20
9.03386
 30
0.0
 40
0
 41
0
  0
VERTEX
  8
0
 10
2.20458
 20
9.03125
 30
0.0
 40
0
 41
0
  0
VERTEX
  8
0
 10
2.20514
 20
9.03082
 30
0.0
 40
0
 41
0
  0
VERTEX
  8
0
 10
2.20497
 20
9.03006
 30
0.0
 40
0
 41
0
  0
VERTEX
  8
0
 10
2.20888
 20
9.02718
 30
0.0
 40
0
 41
0
  0
VERTEX
  8
0
 10
2.20904
 20
9.02692
 30
0.0
 40
0
 41
0
  0
VERTEX
  8
0
 10
2.20904
 20
9.02692
 30
0.0
 40
0
 41
0
  0
VERTEX
  8
0
 10
2.21007
 20
9.02485
 30
0.0
 40
0
 41
0
  0
VERTEX
  8
0
 10
2.21012
 20
9.02474
 30
0.0
 40
0
 41
0
  0
VERTEX
  8
0
 10
2.20969
 20
9.02431
 30
0.0
 40
0
 41
0
  0
VERTEX
  8
0
 10
2.20888
 20
9.02257
 30
0.0
 40
0
 41
0
  0
VERTEX
  8
0
 10
2.21078
 20
9.02344
 30
0.0
 40
0
 41
0
  0
VERTEX
  8
0
 10
2.21078
 20
9.02344
 30
0.0
 40
0
 41
0
  0
VERTEX
  8
0
 10
2.21029
 20
9.023
 30
0.0
 40
0
 41
0
  0
VERTEX
  8
0
 10
2.20936
 20
9.02115
 30
0.0
 40
0
 41
0
  0
VERTEX
  8
0
 10
2.21121
 20
9.02149
 30
0.0
 40
0
 41
0
  0
VERTEX
  8
0
 10
2.21121
 20
9.02149
 30
0.0
 40
0
 41
0
  0
VERTEX
  8
0
 10
2.21121
 20
9.02078
 30
0.0
 40
0
 41
0
  0
VERTEX
  8
0
 10
2.21121
 20
9.01921
 30
0.0
 40
0
 41
0
  0
VERTEX
  8
0
 10
2.21121
 20
9.01867
 30
0.0
 40
0
 41
0
  0
VERTEX
  8
0
 10
2.21121
 20
9.01785
 30
0.0
 40
0
 41
0
  0
VERTEX
  8
0
 10
2.21099
 20
9.01568
 30
0.0
 40
0
 41
0
  0
VERTEX
  8
0
 10
2.21099
 20
9.0154
 30
0.0
 40
0
 41
0
  0
VERTEX
  8
0
 10
2.21044
 20
9.01519
 30
0.0
 40
0
 41
0
  0
VERTEX
  8
0
 10
2.20915
 20
9.01372
 30
0.0
 40
0
 41
0
  0
VERTEX
  8
0
 10
2.21056
 20
9.01324
 30
0.0
 40
0
 41
0
  0
VERTEX
  8
0
 10
2.21056
 20
9.01324
 30
0.0
 40
0
 41
0
  0
VERTEX
  8
0
 10
2.21001
 20
9.01313
 30
0.0
 40
0
 41
0
  0
VERTEX
  8
0
 10
2.20861
 20
9.01226
 30
0.0
 40
0
 41
0
  0
VERTEX
  8
0
 10
2.2099
 20
9.01193
 30
0.0
 40
0
 41
0
  0
VERTEX
  8
0
 10
2.2099
 20
9.01193
 30
0.0
 40
0
 41
0
  0
VERTEX
  8
0
 10
2.20964
 20
9.01193
 30
0.0
 40
0
 41
0
  0
VERTEX
  8
0
 10
2.20899
 20
9.0115
 30
0.0
 40
0
 41
0
  0
VERTEX
  8
0
 10
2.20882
 20
9.0115
 30
0.0
 40
0
 41
0
  0
VERTEX
  8
0
 10
2.20801
 20
9.0115
 30
0.0
 40
0
 41
0
  0
VERTEX
  8
0
 10
2.20589
 20
9.01313
 30
0.0
 40
0
 41
0
  0
VERTEX
  8
0
 10
2.20557
 20
9.01346
 30
0.0
 40
0
 41
0
  0
VERTEX
  8
0
 10
2.20454
 20
9.01367
 30
0.0
 40
0
 41
0
  0
VERTEX
  8
0
 10
2.20107
 20
9.01779
 30
0.0
 40
0
 41
0
  0
VERTEX
  8
0
 10
2.20057
 20
9.01824
 30
0.0
 40
0
 41
0
  0
VERTEX
  8
0
 10
2.19976
 20
9.01818
 30
0.0
 40
0
 41
0
  0
VERTEX
  8
0
 10
2.19407
 20
9.02289
 30
0.0
 40
0
 41
0
  0
VERTEX
  8
0
 10
2.19342
 20
9.02322
 30
0.0
 40
0
 41
0
  0
VERTEX
  8
0
 10
2.19222
 20
9.02274
 30
0.0
 40
0
 41
0
  0
VERTEX
  8
0
 10
2.18778
 20
9.02339
 30
0.0
 40
0
 41
0
  0
VERTEX
  8
0
 10
2.18517
 20
9.02539
 30
0.0
 40
0
 41
0
  0
VERTEX
  8
0
 10
2.18431
 20
9.02539
 30
0.0
 40
0
 41
0
  0
VERTEX
  8
0
 10
2.18218
 20
9.02539
 30
0.0
 40
0
 41
0
  0
VERTEX
  8
0
 10
2.17643
 20
9.02431
 30
0.0
 40
0
 41
0
  0
VERTEX
  8
0
 10
2.17583
 20
9.02408
 30
0.0
 40
0
 41
0
  0
VERTEX
  8
0
 10
2.17503
 20
9.02317
 30
0.0
 40
0
 41
0
  0
VERTEX
  8
0
 10
2.17182
 20
9.02094
 30
0.0
 40
0
 41
0
  0
VERTEX
  8
0
 10
2.17025
 20
9.02072
 30
0.0
 40
0
 41
0
  0
VERTEX
  8
0
 10
2.16997
 20
9.0204
 30
0.0
 40
0
 41
0
  0
VERTEX
  8
0
 10
2.16954
 20
9.01932
 30
0.0
 40
0
 41
0
  0
VERTEX
  8
0
 10
2.16672
 20
9.01574
 30
0.0
 40
0
 41
0
  0
VERTEX
  8
0
 10
2.1665
 20
9.01519
 30
0.0
 40
0
 41
0
  0
VERTEX
  8
0
 10
2.16575
 20
9.01465
 30
0.0
 40
0
 41
0
  0
VERTEX
  8
0
 10
2.16433
 20
9.01172
 30
0.0
 40
0
 41
0
  0
VERTEX
  8
0
 10
2.16542
 20
9.0096
 30
0.0
 40
0
 41
0
  0
VERTEX
  8
0
 10
2.16542
 20
9.0089
 30
0.0
 40
0
 41
0
  0
VERTEX
  8
0
 10
2.16482
 20
9.0076
 30
0.0
 40
0
 41
0
  0
VERTEX
  8
0
 10
2.16465
 20
9.00282
 30
0.0
 40
0
 41
0
  0
VERTEX
  8
0
 10
2.16704
 20
9.00087
 30
0.0
 40
0
 41
0
  0
VERTEX
  8
0
 10
2.16737
 20
9.00022
 30
0.0
 40
0
 41
0
  0
VERTEX
  8
0
 10
2.16699
 20
8.99972
 30
0.0
 40
0
 41
0
  0
VERTEX
  8
0
 10
2.16818
 20
8.99642
 30
0.0
 40
0
 41
0
  0
VERTEX
  8
0
 10
2.17204
 20
8.99419
 30
0.0
 40
0
 41
0
  0
VERTEX
  8
0
 10
2.17258
 20
8.99371
 30
0.0
 40
0
 41
0
  0
VERTEX
  8
0
 10
2.17285
 20
8.9924
 30
0.0
 40
0
 41
0
  0
VERTEX
  8
0
 10
2.17925
 20
8.98893
 30
0.0
 40
0
 41
0
  0
VERTEX
  8
0
 10
2.17996
 20
8.9885
 30
0.0
 40
0
 41
0
  0
VERTEX
  8
0
 10
2.17979
 20
8.98796
 30
0.0
 40
0
 41
0
  0
VERTEX
  8
0
 10
2.18272
 20
8.98551
 30
0.0
 40
0
 41
0
  0
VERTEX
  8
0
 10
2.1875
 20
8.98415
 30
0.0
 40
0
 41
0
  0
VERTEX
  8
0
 10
2.18821
 20
8.98372
 30
0.0
 40
0
 41
0
  0
VERTEX
  8
0
 10
2.18853
 20
8.98335
 30
0.0
 40
0
 41
0
  0
VERTEX
  8
0
 10
2.19596
 20
8.979
 30
0.0
 40
0
 41
0
  0
VERTEX
  8
0
 10
2.19667
 20
8.97851
 30
0.0
 40
0
 41
0
  0
VERTEX
  8
0
 10
2.1964
 20
8.97781
 30
0.0
 40
0
 41
0
  0
VERTEX
  8
0
 10
2.19889
 20
8.97433
 30
0.0
 40
0
 41
0
  0
VERTEX
  8
0
 10
2.2035
 20
8.97244
 30
0.0
 40
0
 41
0
  0
VERTEX
  8
0
 10
2.20404
 20
8.97179
 30
0.0
 40
0
 41
0
  0
VERTEX
  8
0
 10
2.204
 20
8.97097
 30
0.0
 40
0
 41
0
  0
VERTEX
  8
0
 10
2.20893
 20
8.96337
 30
0.0
 40
0
 41
0
  0
VERTEX
  8
0
 10
2.20925
 20
8.96246
 30
0.0
 40
0
 41
0
  0
VERTEX
  8
0
 10
2.20861
 20
8.96115
 30
0.0
 40
0
 41
0
  0
VERTEX
  8
0
 10
2.20921
 20
8.95594
 30
0.0
 40
0
 41
0
  0
VERTEX
  8
0
 10
2.21121
 20
8.95156
 30
0.0
 40
0
 41
0
  0
VERTEX
  8
0
 10
2.21121
 20
8.95008
 30
0.0
 40
0
 41
0
  0
SEQEND
 8
0
  0
POLYLINE
  8
0
 62
     0
 66
     1
 10
0
 20
0
 30
0.0
 70
     1
 40
0
 41
0
  0
VERTEX
  8
0
 10
2.37011
 20
8.91732
 30
0.0
 40
0
 41
0
  0
VERTEX
  8
0
 10
2.37011
 20
8.91699
 30
0.0
 40
0
 41
0
  0
VERTEX
  8
0
 10
2.36957
 20
8.91613
 30
0.0
 40
0
 41
0
  0
VERTEX
  8
0
 10
2.36947
 20
8.91601
 30
0.0
 40
0
 41
0
  0
VERTEX
  8
0
 10
2.36888
 20
8.9159
 30
0.0
 40
0
 41
0
  0
VERTEX
  8
0
 10
2.36714
 20
8.91536
 30
0.0
 40
0
 41
0
  0
VERTEX
  8
0
 10
2.36774
 20
8.91515
 30
0.0
 40
0
 41
0
  0
VERTEX
  8
0
 10
2.36774
 20
8.91515
 30
0.0
 40
0
 41
0
  0
VERTEX
  8
0
 10
2.36686
 20
8.91504
 30
0.0
 40
0
 41
0
  0
VERTEX
  8
0
 10
2.36464
 20
8.91456
 30
0.0
 40
0
 41
0
  0
VERTEX
  8
0
 10
2.36426
 20
8.9145
 30
0.0
 40
0
 41
0
  0
VERTEX
  8
0
 10
2.36322
 20
8.91444
 30
0.0
 40
0
 41
0
  0
VERTEX
  8
0
 10
2.35992
 20
8.91428
 30
0.0
 40
0
 41
0
  0
VERTEX
  8
0
 10
2.35883
 20
8.91428
 30
0.0
 40
0
 41
0
  0
VERTEX
  8
0
 10
2.35742
 20
8.91428
 30
0.0
 40
0
 41
0
  0
VERTEX
  8
0
 10
2.35351
 20
8.9145
 30
0.0
 40
0
 41
0
  0
VERTEX
  8
0
 10
2.35319
 20
8.9145
 30
0.0
 40
0
 41
0
  0
VERTEX
  8
0
 10
2.35232
 20
8.9145
 30
0.0
 40
0
 41
0
  0
VERTEX
  8
0
 10
2.34993
 20
8.9151
 30
0.0
 40
0
 41
0
  0
VERTEX
  8
0
 10
2.34972
 20
8.91515
 30
0.0
 40
0
 41
0
  0
VERTEX
  8
0
 10
2.34924
 20
8.91515
 30
0.0
 40
0
 41
0
  0
VERTEX
  8
0
 10
2.34787
 20
8.91596
 30
0.0
 40
0
 41
0
  0
VERTEX
  8
0
 10
2.34776
 20
8.91601
 30
0.0
 40
0
 41
0
  0
VERTEX
  8
0
 10
2.34765
 20
8.91601
 30
0.0
 40
0
 41
0
  0
VERTEX
  8
0
 10
2.34733
 20
8.91699
 30
0.0
 40
0
 41
0
  0
VERTEX
  8
0
 10
2.34733
 20
8.91732
 30
0.0
 40
0
 41
0
  0
VERTEX
  8
0
 10
2.34733
 20
8.972
 30
0.0
 40
0
 41
0
  0
VERTEX
  8
0
 10
2.3469
 20
8.97282
 30
0.0
 40
0
 41
0
  0
VERTEX
  8
0
 10
2.34679
 20
8.98167
 30
0.0
 40
0
 41
0
  0
VERTEX
  8
0
 10
2.34668
 20
8.98242
 30
0.0
 40
0
 41
0
  0
VERTEX
  8
0
 10
2.34668
 20
8.98242
 30
0.0
 40
0
 41
0
  0
VERTEX
  8
0
 10
2.34549
 20
8.98525
 30
0.0
 40
0
 41
0
  0
VERTEX
  8
0
 10
2.34517
 20
8.9899
 30
0.0
 40
0
 41
0
  0
VERTEX
  8
0
 10
2.34494
 20
8.99046
 30
0.0
 40
0
 41
0
  0
VERTEX
  8
0
 10
2.34451
 20
8.9905
 30
0.0
 40
0
 41
0
  0
VERTEX
  8
0
 10
2.34201
 20
8.99539
 30
0.0
 40
0
 41
0
  0
VERTEX
  8
0
 10
2.34169
 20
8.99567
 30
0.0
 40
0
 41
0
  0
VERTEX
  8
0
 10
2.34088
 20
8.99533
 30
0.0
 40
0
 41
0
  0
VERTEX
  8
0
 10
2.33789
 20
8.99567
 30
0.0
 40
0
 41
0
  0
VERTEX
  8
0
 10
2.33729
 20
8.99761
 30
0.0
 40
0
 41
0
  0
VERTEX
  8
0
 10
2.33712
 20
8.99761
 30
0.0
 40
0
 41
0
  0
VERTEX
  8
0
 10
2.3355
 20
8.99761
 30
0.0
 40
0
 41
0
  0
VERTEX
  8
0
 10
2.33117
 20
8.99382
 30
0.0
 40
0
 41
0
  0
VERTEX
  8
0
 10
2.33062
 20
8.99306
 30
0.0
 40
0
 41
0
  0
VERTEX
  8
0
 10
2.32986
 20
8.9916
 30
0.0
 40
0
 41
0
  0
VERTEX
  8
0
 10
2.32411
 20
8.98167
 30
0.0
 40
0
 41
0
  0
VERTEX
  8
0
 10
2.32346
 20
8.98025
 30
0.0
 40
0
 41
0
  0
VERTEX
  8
0
 10
2.32346
 20
8.91732
 30
0.0
 40
0
 41
0
  0
VERTEX
  8
0
 10
2.32319
 20
8.91721
 30
0.0
 40
0
 41
0
  0
VERTEX
  8
0
 10
2.32292
 20
8.91613
 30
0.0
 40
0
 41
0
  0
VERTEX
  8
0
 10
2.32281
 20
8.91601
 30
0.0
 40
0
 41
0
  0
VERTEX
  8
0
 10
2.32232
 20
8.9159
 30
0.0
 40
0
 41
0
  0
VERTEX
  8
0
 10
2.32129
 20
8.91525
 30
0.0
 40
0
 41
0
  0
VERTEX
  8
0
 10
2.32107
 20
8.91515
 30
0.0
 40
0
 41
0
  0
VERTEX
  8
0
 10
2.32032
 20
8.91504
 30
0.0
 40
0
 41
0
  0
VERTEX
  8
0
 10
2.31776
 20
8.91456
 30
0.0
 40
0
 41
0
  0
VERTEX
  8
0
 10
2.31739
 20
8.9145
 30
0.0
 40
0
 41
0
  0
VERTEX
  8
0
 10
2.31679
 20
8.91444
 30
0.0
 40
0
 41
0
  0
VERTEX
  8
0
 10
2.31315
 20
8.91428
 30
0.0
 40
0
 41
0
  0
VERTEX
  8
0
 10
2.31196
 20
8.91428
 30
0.0
 40
0
 41
0
  0
VERTEX
  8
0
 10
2.3106
 20
8.91428
 30
0.0
 40
0
 41
0
  0
VERTEX
  8
0
 10
2.30692
 20
8.9145
 30
0.0
 40
0
 41
0
  0
VERTEX
  8
0
 10
2.30653
 20
8.9145
 30
0.0
 40
0
 41
0
  0
VERTEX
  8
0
 10
2.30567
 20
8.91456
 30
0.0
 40
0
 41
0
  0
VERTEX
  8
0
 10
2.30306
 20
8.9151
 30
0.0
 40
0
 41
0
  0
VERTEX
  8
0
 10
2.30285
 20
8.91515
 30
0.0
 40
0
 41
0
  0
VERTEX
  8
0
 10
2.3024
 20
8.91515
 30
0.0
 40
0
 41
0
  0
VERTEX
  8
0
 10
2.30117
 20
8.91596
 30
0.0
 40
0
 41
0
  0
VERTEX
  8
0
 10
2.30111
 20
8.91601
 30
0.0
 40
0
 41
0
  0
VERTEX
  8
0
 10
2.30111
 20
8.91601
 30
0.0
 40
0
 41
0
  0
VERTEX
  8
0
 10
2.30067
 20
8.91699
 30
0.0
 40
0
 41
0
  0
VERTEX
  8
0
 10
2.30067
 20
8.91732
 30
0.0
 40
0
 41
0
  0
VERTEX
  8
0
 10
2.30067
 20
8.972
 30
0.0
 40
0
 41
0
  0
VERTEX
  8
0
 10
2.30067
 20
8.97461
 30
0.0
 40
0
 41
0
  0
VERTEX
  8
0
 10
2.29992
 20
8.98167
 30
0.0
 40
0
 41
0
  0
VERTEX
  8
0
 10
2.29981
 20
8.98242
 30
0.0
 40
0
 41
0
  0
VERTEX
  8
0
 10
2.29926
 20
8.98232
 30
0.0
 40
0
 41
0
  0
VERTEX
  8
0
 10
2.29704
 20
8.98525
 30
0.0
 40
0
 41
0
  0
VERTEX
  8
0
 10
2.29747
 20
8.9899
 30
0.0
 40
0
 41
0
  0
VERTEX
  8
0
 10
2.29719
 20
8.99046
 30
0.0
 40
0
 41
0
  0
VERTEX
  8
0
 10
2.29633
 20
8.99046
 30
0.0
 40
0
 41
0
  0
VERTEX
  8
0
 10
2.29389
 20
8.99268
 30
0.0
 40
0
 41
0
  0
VERTEX
  8
0
 10
2.29329
 20
8.99539
 30
0.0
 40
0
 41
0
  0
VERTEX
  8
0
 10
2.29286
 20
8.99567
 30
0.0
 40
0
 41
0
  0
VERTEX
  8
0
 10
2.29226
 20
8.99528
 30
0.0
 40
0
 41
0
  0
VERTEX
  8
0
 10
2.28922
 20
8.99567
 30
0.0
 40
0
 41
0
  0
VERTEX
  8
0
 10
2.28737
 20
8.99761
 30
0.0
 40
0
 41
0
  0
VERTEX
  8
0
 10
2.28678
 20
8.99761
 30
0.0
 40
0
 41
0
  0
VERTEX
  8
0
 10
2.2845
 20
8.99761
 30
0.0
 40
0
 41
0
  0
VERTEX
  8
0
 10
2.27843
 20
8.99382
 30
0.0
 40
0
 41
0
  0
VERTEX
  8
0
 10
2.27767
 20
8.99306
 30
0.0
 40
0
 41
0
  0
VERTEX
  8
0
 10
2.27647
 20
8.9916
 30
0.0
 40
0
 41
0
  0
VERTEX
  8
0
 10
2.26878
 20
8.98167
 30
0.0
 40
0
 41
0
  0
VERTEX
  8
0
 10
2.2679
 20
8.98025
 30
0.0
 40
0
 41
0
  0
VERTEX
  8
0
 10
2.2679
 20
8.91732
 30
0.0
 40
0
 41
0
  0
VERTEX
  8
0
 10
2.26764
 20
8.91721
 30
0.0
 40
0
 41
0
  0
VERTEX
  8
0
 10
2.26736
 20
8.91613
 30
0.0
 40
0
 41
0
  0
VERTEX
  8
0
 10
2.26725
 20
8.91601
 30
0.0
 40
0
 41
0
  0
VERTEX
  8
0
 10
2.26676
 20
8.9159
 30
0.0
 40
0
 41
0
  0
VERTEX
  8
0
 10
2.26574
 20
8.91525
 30
0.0
 40
0
 41
0
  0
VERTEX
  8
0
 10
2.26551
 20
8.91515
 30
0.0
 40
0
 41
0
  0
VERTEX
  8
0
 10
2.26476
 20
8.91504
 30
0.0
 40
0
 41
0
  0
VERTEX
  8
0
 10
2.26238
 20
8.91456
 30
0.0
 40
0
 41
0
  0
VERTEX
  8
0
 10
2.26204
 20
8.9145
 30
0.0
 40
0
 41
0
  0
VERTEX
  8
0
 10
2.26139
 20
8.91444
 30
0.0
 40
0
 41
0
  0
VERTEX
  8
0
 10
2.25765
 20
8.91428
 30
0.0
 40
0
 41
0
  0
VERTEX
  8
0
 10
2.2564
 20
8.91428
 30
0.0
 40
0
 41
0
  0
VERTEX
  8
0
 10
2.25504
 20
8.91428
 30
0.0
 40
0
 41
0
  0
VERTEX
  8
0
 10
2.25131
 20
8.9145
 30
0.0
 40
0
 41
0
  0
VERTEX
  8
0
 10
2.25097
 20
8.9145
 30
0.0
 40
0
 41
0
  0
VERTEX
  8
0
 10
2.25011
 20
8.91456
 30
0.0
 40
0
 41
0
  0
VERTEX
  8
0
 10
2.2475
 20
8.9151
 30
0.0
 40
0
 41
0
  0
VERTEX
  8
0
 10
2.24729
 20
8.91515
 30
0.0
 40
0
 41
0
  0
VERTEX
  8
0
 10
2.24685
 20
8.91515
 30
0.0
 40
0
 41
0
  0
VERTEX
  8
0
 10
2.24561
 20
8.91596
 30
0.0
 40
0
 41
0
  0
VERTEX
  8
0
 10
2.24556
 20
8.91601
 30
0.0
 40
0
 41
0
  0
VERTEX
  8
0
 10
2.24556
 20
8.91601
 30
0.0
 40
0
 41
0
  0
VERTEX
  8
0
 10
2.24511
 20
8.91699
 30
0.0
 40
0
 41
0
  0
VERTEX
  8
0
 10
2.24511
 20
8.91732
 30
0.0
 40
0
 41
0
  0
VERTEX
  8
0
 10
2.24511
 20
9.00846
 30
0.0
 40
0
 41
0
  0
VERTEX
  8
0
 10
2.24511
 20
9.00846
 30
0.0
 40
0
 41
0
  0
VERTEX
  8
0
 10
2.24544
 20
9.0095
 30
0.0
 40
0
 41
0
  0
VERTEX
  8
0
 10
2.24556
 20
9.00956
 30
0.0
 40
0
 41
0
  0
VERTEX
  8
0
 10
2.24556
 20
9.00956
 30
0.0
 40
0
 41
0
  0
VERTEX
  8
0
 10
2.24685
 20
9.01058
 30
0.0
 40
0
 41
0
  0
VERTEX
  8
0
 10
2.24707
 20
9.01064
 30
0.0
 40
0
 41
0
  0
VERTEX
  8
0
 10
2.24707
 20
9.01036
 30
0.0
 40
0
 41
0
  0
VERTEX
  8
0
 10
2.24826
 20
9.0095
 30
0.0
 40
0
 41
0
  0
VERTEX
  8
0
 10
2.24978
 20
9.01129
 30
0.0
 40
0
 41
0
  0
VERTEX
  8
0
 10
2.25032
 20
9.01129
 30
0.0
 40
0
 41
0
  0
VERTEX
  8
0
 10
2.25028
 20
9.01096
 30
0.0
 40
0
 41
0
  0
VERTEX
  8
0
 10
2.25196
 20
9.00976
 30
0.0
 40
0
 41
0
  0
VERTEX
  8
0
 10
2.25461
 20
9.0115
 30
0.0
 40
0
 41
0
  0
VERTEX
  8
0
 10
2.25553
 20
9.0115
 30
0.0
 40
0
 41
0
  0
VERTEX
  8
0
 10
2.25553
 20
9.0115
 30
0.0
 40
0
 41
0
  0
VERTEX
  8
0
 10
2.26019
 20
9.01133
 30
0.0
 40
0
 41
0
  0
VERTEX
  8
0
 10
2.26053
 20
9.01129
 30
0.0
 40
0
 41
0
  0
VERTEX
  8
0
 10
2.26058
 20
9.01079
 30
0.0
 40
0
 41
0
  0
VERTEX
  8
0
 10
2.26204
 20
9.00944
 30
0.0
 40
0
 41
0
  0
VERTEX
  8
0
 10
2.2634
 20
9.01074
 30
0.0
 40
0
 41
0
  0
VERTEX
  8
0
 10
2.26357
 20
9.01064
 30
0.0
 40
0
 41
0
  0
VERTEX
  8
0
 10
2.26346
 20
9.01014
 30
0.0
 40
0
 41
0
  0
VERTEX
  8
0
 10
2.26406
 20
9.00851
 30
0.0
 40
0
 41
0
  0
VERTEX
  8
0
 10
2.26531
 20
9.00956
 30
0.0
 40
0
 41
0
  0
VERTEX
  8
0
 10
2.26531
 20
9.00956
 30
0.0
 40
0
 41
0
  0
VERTEX
  8
0
 10
2.26508
 20
9.00911
 30
0.0
 40
0
 41
0
  0
VERTEX
  8
0
 10
2.26481
 20
9.0076
 30
0.0
 40
0
 41
0
  0
VERTEX
  8
0
 10
2.26574
 20
9.00846
 30
0.0
 40
0
 41
0
  0
VERTEX
  8
0
 10
2.26574
 20
9.00846
 30
0.0
 40
0
 41
0
  0
VERTEX
  8
0
 10
2.26574
 20
8.99631
 30
0.0
 40
0
 41
0
  0
VERTEX
  8
0
 10
2.26633
 20
8.99658
 30
0.0
 40
0
 41
0
  0
VERTEX
  8
0
 10
2.27192
 20
9.00151
 30
0.0
 40
0
 41
0
  0
VERTEX
  8
0
 10
2.27849
 20
9.00722
 30
0.0
 40
0
 41
0
  0
VERTEX
  8
0
 10
2.27962
 20
9.00782
 30
0.0
 40
0
 41
0
  0
VERTEX
  8
0
 10
2.28017
 20
9.0076
 30
0.0
 40
0
 41
0
  0
VERTEX
  8
0
 10
2.28549
 20
9.00933
 30
0.0
 40
0
 41
0
  0
VERTEX
  8
0
 10
2.29118
 20
9.0115
 30
0.0
 40
0
 41
0
  0
VERTEX
  8
0
 10
2.29308
 20
9.0115
 30
0.0
 40
0
 41
0
  0
VERTEX
  8
0
 10
2.29542
 20
9.0115
 30
0.0
 40
0
 41
0
  0
VERTEX
  8
0
 10
2.30171
 20
9.01042
 30
0.0
 40
0
 41
0
  0
VERTEX
  8
0
 10
2.3024
 20
9.01019
 30
0.0
 40
0
 41
0
  0
VERTEX
  8
0
 10
2.30296
 20
9.009
 30
0.0
 40
0
 41
0
  0
VERTEX
  8
0
 10
2.30925
 20
9.00732
 30
0.0
 40
0
 41
0
  0
VERTEX
  8
0
 10
2.30979
 20
9.00694
 30
0.0
 40
0
 41
0
  0
VERTEX
  8
0
 10
2.30963
 20
9.00618
 30
0.0
 40
0
 41
0
  0
VERTEX
  8
0
 10
2.31158
 20
9.00342
 30
0.0
 40
0
 41
0
  0
VERTEX
  8
0
 10
2.31483
 20
9.00228
 30
0.0
 40
0
 41
0
  0
VERTEX
  8
0
 10
2.31521
 20
9.00174
 30
0.0
 40
0
 41
0
  0
VERTEX
  8
0
 10
2.31554
 20
9.00092
 30
0.0
 40
0
 41
0
  0
VERTEX
  8
0
 10
2.31885
 20
8.99567
 30
0.0
 40
0
 41
0
  0
VERTEX
  8
0
 10
2.31913
 20
8.99501
 30
0.0
 40
0
 41
0
  0
VERTEX
  8
0
 10
2.31917
 20
8.99496
 30
0.0
 40
0
 41
0
  0
VERTEX
  8
0
 10
2.3221
 20
8.99778
 30
0.0
 40
0
 41
0
  0
VERTEX
  8
0
 10
2.32553
 20
9.00211
 30
0.0
 40
0
 41
0
  0
VERTEX
  8
0
 10
2.32607
 20
9.00261
 30
0.0
 40
0
 41
0
  0
VERTEX
  8
0
 10
2.32607
 20
9.00261
 30
0.0
 40
0
 41
0
  0
VERTEX
  8
0
 10
2.32796
 20
9.00493
 30
0.0
 40
0
 41
0
  0
VERTEX
  8
0
 10
2.33203
 20
9.00749
 30
0.0
 40
0
 41
0
  0
VERTEX
  8
0
 10
2.33257
 20
9.00782
 30
0.0
 40
0
 41
0
  0
VERTEX
  8
0
 10
2.33257
 20
9.00782
 30
0.0
 40
0
 41
0
  0
VERTEX
  8
0
 10
2.33817
 20
9.01053
 30
0.0
 40
0
 41
0
  0
VERTEX
  8
0
 10
2.33865
 20
9.01064
 30
0.0
 40
0
 41
0
  0
VERTEX
  8
0
 10
2.3386
 20
9.01058
 30
0.0
 40
0
 41
0
  0
VERTEX
  8
0
 10
2.34033
 20
9.00965
 30
0.0
 40
0
 41
0
  0
VERTEX
  8
0
 10
2.34343
 20
9.0115
 30
0.0
 40
0
 41
0
  0
VERTEX
  8
0
 10
2.34451
 20
9.0115
 30
0.0
 40
0
 41
0
  0
VERTEX
  8
0
 10
2.3475
 20
9.0115
 30
0.0
 40
0
 41
0
  0
VERTEX
  8
0
 10
2.35562
 20
9.009
 30
0.0
 40
0
 41
0
  0
VERTEX
  8
0
 10
2.35644
 20
9.00846
 30
0.0
 40
0
 41
0
  0
VERTEX
  8
0
 10
2.35726
 20
9.00706
 30
0.0
 40
0
 41
0
  0
VERTEX
  8
0
 10
2.36393
 20
9.00108
 30
0.0
 40
0
 41
0
  0
VERTEX
  8
0
 10
2.36447
 20
9.00022
 30
0.0
 40
0
 41
0
  0
VERTEX
  8
0
 10
2.36426
 20
8.99918
 30
0.0
 40
0
 41
0
  0
VERTEX
  8
0
 10
2.3686
 20
8.98947
 30
0.0
 40
0
 41
0
  0
VERTEX
  8
0
 10
2.36882
 20
8.98828
 30
0.0
 40
0
 41
0
  0
VERTEX
  8
0
 10
2.36794
 20
8.98682
 30
0.0
 40
0
 41
0
  0
VERTEX
  8
0
 10
2.36817
 20
8.98079
 30
0.0
 40
0
 41
0
  0
VERTEX
  8
0
 10
2.37011
 20
8.97569
 30
0.0
 40
0
 41
0
  0
VERTEX
  8
0
 10
2.37011
 20
8.97396
 30
0.0
 40
0
 41
0
  0
VERTEX
  8
0
 10
2.37011
 20
8.91732
 30
0.0
 40
0
 41
0
  0
SEQEND
 8
0
  0
POLYLINE
  8
0
 62
     0
 66
     1
 10
0
 20
0
 30
0.0
 70
     1
 40
0
 41
0
  0
VERTEX
  8
0
 10
2.47032
 20
8.91732
 30
0.0
 40
0
 41
0
  0
VERTEX
  8
0
 10
2.47032
 20
8.91683
 30
0.0
 40
0
 41
0
  0
VERTEX
  8
0
 10
2.4694
 20
8.91547
 30
0.0
 40
0
 41
0
  0
VERTEX
  8
0
 10
2.46924
 20
8.91536
 30
0.0
 40
0
 41
0
  0
VERTEX
  8
0
 10
2.46843
 20
8.91531
 30
0.0
 40
0
 41
0
  0
VERTEX
  8
0
 10
2.46653
 20
8.91461
 30
0.0
 40
0
 41
0
  0
VERTEX
  8
0
 10
2.46619
 20
8.9145
 30
0.0
 40
0
 41
0
  0
VERTEX
  8
0
 10
2.46506
 20
8.91444
 30
0.0
 40
0
 41
0
  0
VERTEX
  8
0
 10
2.46149
 20
8.91428
 30
0.0
 40
0
 41
0
  0
VERTEX
  8
0
 10
2.46035
 20
8.91428
 30
0.0
 40
0
 41
0
  0
VERTEX
  8
0
 10
2.45893
 20
8.91428
 30
0.0
 40
0
 41
0
  0
VERTEX
  8
0
 10
2.45503
 20
8.9145
 30
0.0
 40
0
 41
0
  0
VERTEX
  8
0
 10
2.45469
 20
8.9145
 30
0.0
 40
0
 41
0
  0
VERTEX
  8
0
 10
2.45389
 20
8.91456
 30
0.0
 40
0
 41
0
  0
VERTEX
  8
0
 10
2.45161
 20
8.91531
 30
0.0
 40
0
 41
0
  0
VERTEX
  8
0
 10
2.45144
 20
8.91536
 30
0.0
 40
0
 41
0
  0
VERTEX
  8
0
 10
2.45122
 20
8.91536
 30
0.0
 40
0
 41
0
  0
VERTEX
  8
0
 10
2.45057
 20
8.91683
 30
0.0
 40
0
 41
0
  0
VERTEX
  8
0
 10
2.45057
 20
8.91732
 30
0.0
 40
0
 41
0
  0
VERTEX
  8
0
 10
2.45057
 20
8.92578
 30
0.0
 40
0
 41
0
  0
VERTEX
  8
0
 10
2.44917
 20
8.92399
 30
0.0
 40
0
 41
0
  0
VERTEX
  8
0
 10
2.44428
 20
8.91906
 30
0.0
 40
0
 41
0
  0
VERTEX
  8
0
 10
2.44049
 20
8.91738
 30
0.0
 40
0
 41
0
  0
VERTEX
  8
0
 10
2.43951
 20
8.91689
 30
0.0
 40
0
 41
0
  0
VERTEX
  8
0
 10
2.43767
 20
8.91629
 30
0.0
 40
0
 41
0
  0
VERTEX
  8
0
 10
2.43201
 20
8.91461
 30
0.0
 40
0
 41
0
  0
VERTEX
  8
0
 10
2.42817
 20
8.91428
 30
0.0
 40
0
 41
0
  0
VERTEX
  8
0
 10
2.42692
 20
8.91428
 30
0.0
 40
0
 41
0
  0
VERTEX
  8
0
 10
2.42421
 20
8.91428
 30
0.0
 40
0
 41
0
  0
VERTEX
  8
0
 10
2.41683
 20
8.91575
 30
0.0
 40
0
 41
0
  0
VERTEX
  8
0
 10
2.41607
 20
8.91601
 30
0.0
 40
0
 41
0
  0
VERTEX
  8
0
 10
2.41515
 20
8.91624
 30
0.0
 40
0
 41
0
  0
VERTEX
  8
0
 10
2.40836
 20
8.92068
 30
0.0
 40
0
 41
0
  0
VERTEX
  8
0
 10
2.40782
 20
8.92122
 30
0.0
 40
0
 41
0
  0
VERTEX
  8
0
 10
2.40685
 20
8.92122
 30
0.0
 40
0
 41
0
  0
VERTEX
  8
0
 10
2.40397
 20
8.92415
 30
0.0
 40
0
 41
0
  0
VERTEX
  8
0
 10
2.40294
 20
8.92871
 30
0.0
 40
0
 41
0
  0
VERTEX
  8
0
 10
2.40261
 20
8.92947
 30
0.0
 40
0
 41
0
  0
VERTEX
  8
0
 10
2.40218
 20
8.93024
 30
0.0
 40
0
 41
0
  0
VERTEX
  8
0
 10
2.40088
 20
8.93815
 30
0.0
 40
0
 41
0
  0
VERTEX
  8
0
 10
2.40088
 20
8.94075
 30
0.0
 40
0
 41
0
  0
VERTEX
  8
0
 10
2.40088
 20
8.94396
 30
0.0
 40
0
 41
0
  0
VERTEX
  8
0
 10
2.40283
 20
8.95269
 30
0.0
 40
0
 41
0
  0
VERTEX
  8
0
 10
2.40326
 20
8.95356
 30
0.0
 40
0
 41
0
  0
VERTEX
  8
0
 10
2.40349
 20
8.9535
 30
0.0
 40
0
 41
0
  0
VERTEX
  8
0
 10
2.40608
 20
8.95708
 30
0.0
 40
0
 41
0
  0
VERTEX
  8
0
 10
2.40983
 20
8.96192
 30
0.0
 40
0
 41
0
  0
VERTEX
  8
0
 10
2.41064
 20
8.96246
 30
0.0
 40
0
 41
0
  0
VERTEX
  8
0
 10
2.4106
 20
8.96257
 30
0.0
 40
0
 41
0
  0
VERTEX
  8
0
 10
2.41465
 20
8.96485
 30
0.0
 40
0
 41
0
  0
VERTEX
  8
0
 10
2.42101
 20
8.96761
 30
0.0
 40
0
 41
0
  0
VERTEX
  8
0
 10
2.42215
 20
8.96789
 30
0.0
 40
0
 41
0
  0
VERTEX
  8
0
 10
2.42264
 20
8.96724
 30
0.0
 40
0
 41
0
  0
VERTEX
  8
0
 10
2.42839
 20
8.96789
 30
0.0
 40
0
 41
0
  0
VERTEX
  8
0
 10
2.43522
 20
8.96983
 30
0.0
 40
0
 41
0
  0
VERTEX
  8
0
 10
2.43756
 20
8.96983
 30
0.0
 40
0
 41
0
  0
VERTEX
  8
0
 10
2.44754
 20
8.96983
 30
0.0
 40
0
 41
0
  0
VERTEX
  8
0
 10
2.44754
 20
8.97678
 30
0.0
 40
0
 41
0
  0
VERTEX
  8
0
 10
2.4471
 20
8.97706
 30
0.0
 40
0
 41
0
  0
VERTEX
  8
0
 10
2.44661
 20
8.98503
 30
0.0
 40
0
 41
0
  0
VERTEX
  8
0
 10
2.44646
 20
8.98568
 30
0.0
 40
0
 41
0
  0
VERTEX
  8
0
 10
2.44596
 20
8.98622
 30
0.0
 40
0
 41
0
  0
VERTEX
  8
0
 10
2.44374
 20
8.99197
 30
0.0
 40
0
 41
0
  0
VERTEX
  8
0
 10
2.44342
 20
8.9924
 30
0.0
 40
0
 41
0
  0
VERTEX
  8
0
 10
2.44299
 20
8.99214
 30
0.0
 40
0
 41
0
  0
VERTEX
  8
0
 10
2.43832
 20
8.9961
 30
0.0
 40
0
 41
0
  0
VERTEX
  8
0
 10
2.43778
 20
8.99631
 30
0.0
 40
0
 41
0
  0
VERTEX
  8
0
 10
2.43685
 20
8.99571
 30
0.0
 40
0
 41
0
  0
VERTEX
  8
0
 10
2.43289
 20
8.99571
 30
0.0
 40
0
 41
0
  0
VERTEX
  8
0
 10
2.43033
 20
8.99761
 30
0.0
 40
0
 41
0
  0
VERTEX
  8
0
 10
2.42953
 20
8.99761
 30
0.0
 40
0
 41
0
  0
VERTEX
  8
0
 10
2.42708
 20
8.99761
 30
0.0
 40
0
 41
0
  0
VERTEX
  8
0
 10
2.42046
 20
8.99582
 30
0.0
 40
0
 41
0
  0
VERTEX
  8
0
 10
2.41976
 20
8.99544
 30
0.0
 40
0
 41
0
  0
VERTEX
  8
0
 10
2.41883
 20
8.99436
 30
0.0
 40
0
 41
0
  0
VERTEX
  8
0
 10
2.41521
 20
8.99169
 30
0.0
 40
0
 41
0
  0
VERTEX
  8
0
 10
2.41292
 20
8.9911
 30
0.0
 40
0
 41
0
  0
VERTEX
  8
0
 10
2.41237
 20
8.99067
 30
0.0
 40
0
 41
0
  0
VERTEX
  8
0
 10
2.41118
 20
8.9899
 30
0.0
 40
0
 41
0
  0
VERTEX
  8
0
 10
2.40793
 20
8.98731
 30
0.0
 40
0
 41
0
  0
VERTEX
  8
0
 10
2.40722
 20
8.98622
 30
0.0
 40
0
 41
0
  0
VERTEX
  8
0
 10
2.40696
 20
8.98589
 30
0.0
 40
0
 41
0
  0
VERTEX
  8
0
 10
2.40608
 20
8.9854
 30
0.0
 40
0
 41
0
  0
VERTEX
  8
0
 10
2.40429
 20
8.98372
 30
0.0
 40
0
 41
0
  0
VERTEX
  8
0
 10
2.40369
 20
8.98372
 30
0.0
 40
0
 41
0
  0
VERTEX
  8
0
 10
2.40338
 20
8.98372
 30
0.0
 40
0
 41
0
  0
VERTEX
  8
0
 10
2.4025
 20
8.9841
 30
0.0
 40
0
 41
0
  0
VERTEX
  8
0
 10
2.4024
 20
8.98415
 30
0.0
 40
0
 41
0
  0
VERTEX
  8
0
 10
2.40218
 20
8.98421
 30
0.0
 40
0
 41
0
  0
VERTEX
  8
0
 10
2.40158
 20
8.98514
 30
0.0
 40
0
 41
0
  0
VERTEX
  8
0
 10
2.40153
 20
8.98525
 30
0.0
 40
0
 41
0
  0
VERTEX
  8
0
 10
2.40142
 20
8.98529
 30
0.0
 40
0
 41
0
  0
VERTEX
  8
0
 10
2.4011
 20
8.98703
 30
0.0
 40
0
 41
0
  0
VERTEX
  8
0
 10
2.4011
 20
8.98719
 30
0.0
 40
0
 41
0
  0
VERTEX
  8
0
 10
2.4011
 20
8.98719
 30
0.0
 40
0
 41
0
  0
VERTEX
  8
0
 10
2.40088
 20
8.98915
 30
0.0
 40
0
 41
0
  0
VERTEX
  8
0
 10
2.40088
 20
8.98981
 30
0.0
 40
0
 41
0
  0
VERTEX
  8
0
 10
2.40088
 20
8.98981
 30
0.0
 40
0
 41
0
  0
VERTEX
  8
0
 10
2.40104
 20
8.99349
 30
0.0
 40
0
 41
0
  0
VERTEX
  8
0
 10
2.4011
 20
8.99371
 30
0.0
 40
0
 41
0
  0
VERTEX
  8
0
 10
2.4011
 20
8.99371
 30
0.0
 40
0
 41
0
  0
VERTEX
  8
0
 10
2.40261
 20
8.9961
 30
0.0
 40
0
 41
0
  0
VERTEX
  8
0
 10
2.40283
 20
8.99631
 30
0.0
 40
0
 41
0
  0
VERTEX
  8
0
 10
2.40283
 20
8.99631
 30
0.0
 40
0
 41
0
  0
VERTEX
  8
0
 10
2.40451
 20
8.99642
 30
0.0
 40
0
 41
0
  0
VERTEX
  8
0
 10
2.40707
 20
9
 30
0.0
 40
0
 41
0
  0
VERTEX
  8
0
 10
2.40761
 20
9.00043
 30
0.0
 40
0
 41
0
  0
VERTEX
  8
0
 10
2.40756
 20
9.00071
 30
0.0
 40
0
 41
0
  0
VERTEX
  8
0
 10
2.41444
 20
9.00549
 30
0.0
 40
0
 41
0
  0
VERTEX
  8
0
 10
2.41521
 20
9.00586
 30
0.0
 40
0
 41
0
  0
VERTEX
  8
0
 10
2.41585
 20
9.00558
 30
0.0
 40
0
 41
0
  0
VERTEX
  8
0
 10
2.42367
 20
9.00956
 30
0.0
 40
0
 41
0
  0
VERTEX
  8
0
 10
2.42453
 20
9.00976
 30
0.0
 40
0
 41
0
  0
VERTEX
  8
0
 10
2.42453
 20
9.00965
 30
0.0
 40
0
 41
0
  0
VERTEX
  8
0
 10
2.4285
 20
9.00956
 30
0.0
 40
0
 41
0
  0
VERTEX
  8
0
 10
2.43332
 20
9.0115
 30
0.0
 40
0
 41
0
  0
VERTEX
  8
0
 10
2.43494
 20
9.0115
 30
0.0
 40
0
 41
0
  0
VERTEX
  8
0
 10
2.43901
 20
9.0115
 30
0.0
 40
0
 41
0
  0
VERTEX
  8
0
 10
2.45008
 20
9.00971
 30
0.0
 40
0
 41
0
  0
VERTEX
  8
0
 10
2.45122
 20
9.00933
 30
0.0
 40
0
 41
0
  0
VERTEX
  8
0
 10
2.45161
 20
9.00803
 30
0.0
 40
0
 41
0
  0
VERTEX
  8
0
 10
2.45632
 20
9.00515
 30
0.0
 40
0
 41
0
  0
VERTEX
  8
0
 10
2.46158
 20
9.00358
 30
0.0
 40
0
 41
0
  0
VERTEX
  8
0
 10
2.46229
 20
9.00282
 30
0.0
 40
0
 41
0
  0
VERTEX
  8
0
 10
2.46251
 20
9.00174
 30
0.0
 40
0
 41
0
  0
VERTEX
  8
0
 10
2.46804
 20
8.99349
 30
0.0
 40
0
 41
0
  0
VERTEX
  8
0
 10
2.46838
 20
8.9924
 30
0.0
 40
0
 41
0
  0
VERTEX
  8
0
 10
2.46772
 20
8.99072
 30
0.0
 40
0
 41
0
  0
VERTEX
  8
0
 10
2.46832
 20
8.98449
 30
0.0
 40
0
 41
0
  0
VERTEX
  8
0
 10
2.47032
 20
8.97939
 30
0.0
 40
0
 41
0
  0
VERTEX
  8
0
 10
2.47032
 20
8.97765
 30
0.0
 40
0
 41
0
  0
VERTEX
  8
0
 10
2.47032
 20
8.91732
 30
0.0
 40
0
 41
0
  0
SEQEND
 8
0
  0
POLYLINE
  8
0
 62
     0
 66
     1
 10
0
 20
0
 30
0.0
 70
     1
 40
0
 41
0
  0
VERTEX
  8
0
 10
2.44754
 20
8.95594
 30
0.0
 40
0
 41
0
  0
VERTEX
  8
0
 10
2.43929
 20
8.95594
 30
0.0
 40
0
 41
0
  0
VERTEX
  8
0
 10
2.43756
 20
8.95594
 30
0.0
 40
0
 41
0
  0
VERTEX
  8
0
 10
2.43283
 20
8.95508
 30
0.0
 40
0
 41
0
  0
VERTEX
  8
0
 10
2.43235
 20
8.95486
 30
0.0
 40
0
 41
0
  0
VERTEX
  8
0
 10
2.43181
 20
8.95404
 30
0.0
 40
0
 41
0
  0
VERTEX
  8
0
 10
2.42925
 20
8.95215
 30
0.0
 40
0
 41
0
  0
VERTEX
  8
0
 10
2.42779
 20
8.95226
 30
0.0
 40
0
 41
0
  0
VERTEX
  8
0
 10
2.42757
 20
8.95204
 30
0.0
 40
0
 41
0
  0
VERTEX
  8
0
 10
2.42665
 20
8.95133
 30
0.0
 40
0
 41
0
  0
VERTEX
  8
0
 10
2.42426
 20
8.94863
 30
0.0
 40
0
 41
0
  0
VERTEX
  8
0
 10
2.42481
 20
8.94754
 30
0.0
 40
0
 41
0
  0
VERTEX
  8
0
 10
2.42475
 20
8.94726
 30
0.0
 40
0
 41
0
  0
VERTEX
  8
0
 10
2.42404
 20
8.94667
 30
0.0
 40
0
 41
0
  0
VERTEX
  8
0
 10
2.42285
 20
8.94379
 30
0.0
 40
0
 41
0
  0
VERTEX
  8
0
 10
2.42389
 20
8.94185
 30
0.0
 40
0
 41
0
  0
VERTEX
  8
0
 10
2.42389
 20
8.94119
 30
0.0
 40
0
 41
0
  0
VERTEX
  8
0
 10
2.42329
 20
8.93967
 30
0.0
 40
0
 41
0
  0
VERTEX
  8
0
 10
2.42339
 20
8.93425
 30
0.0
 40
0
 41
0
  0
VERTEX
  8
0
 10
2.42606
 20
8.93229
 30
0.0
 40
0
 41
0
  0
VERTEX
  8
0
 10
2.42649
 20
8.93164
 30
0.0
 40
0
 41
0
  0
VERTEX
  8
0
 10
2.42626
 20
8.93132
 30
0.0
 40
0
 41
0
  0
VERTEX
  8
0
 10
2.42811
 20
8.9286
 30
0.0
 40
0
 41
0
  0
VERTEX
  8
0
 10
2.43224
 20
8.92817
 30
0.0
 40
0
 41
0
  0
VERTEX
  8
0
 10
2.43365
 20
8.92817
 30
0.0
 40
0
 41
0
  0
VERTEX
  8
0
 10
2.43544
 20
8.92817
 30
0.0
 40
0
 41
0
  0
VERTEX
  8
0
 10
2.44026
 20
8.93056
 30
0.0
 40
0
 41
0
  0
VERTEX
  8
0
 10
2.44081
 20
8.93099
 30
0.0
 40
0
 41
0
  0
VERTEX
  8
0
 10
2.44081
 20
8.93099
 30
0.0
 40
0
 41
0
  0
VERTEX
  8
0
 10
2.44254
 20
8.93425
 30
0.0
 40
0
 41
0
  0
VERTEX
  8
0
 10
2.44694
 20
8.93869
 30
0.0
 40
0
 41
0
  0
VERTEX
  8
0
 10
2.44754
 20
8.93967
 30
0.0
 40
0
 41
0
  0
VERTEX
  8
0
 10
2.44754
 20
8.95594
 30
0.0
 40
0
 41
0
  0
SEQEND
 8
0
  0
POLYLINE
  8
0
 62
     0
 66
     1
 10
0
 20
0
 30
0.0
 70
     1
 40
0
 41
0
  0
VERTEX
  8
0
 10
2.51704
 20
8.91732
 30
0.0
 40
0
 41
0
  0
VERTEX
  8
0
 10
2.51676
 20
8.91721
 30
0.0
 40
0
 41
0
  0
VERTEX
  8
0
 10
2.5165
 20
8.91613
 30
0.0
 40
0
 41
0
  0
VERTEX
  8
0
 10
2.51639
 20
8.91601
 30
0.0
 40
0
 41
0
  0
VERTEX
  8
0
 10
2.5159
 20
8.9159
 30
0.0
 40
0
 41
0
  0
VERTEX
  8
0
 10
2.51486
 20
8.91504
 30
0.0
 40
0
 41
0
  0
VERTEX
  8
0
 10
2.51465
 20
8.91493
 30
0.0
 40
0
 41
0
  0
VERTEX
  8
0
 10
2.51389
 20
8.91487
 30
0.0
 40
0
 41
0
  0
VERTEX
  8
0
 10
2.5115
 20
8.91456
 30
0.0
 40
0
 41
0
  0
VERTEX
  8
0
 10
2.51118
 20
8.9145
 30
0.0
 40
0
 41
0
  0
VERTEX
  8
0
 10
2.51053
 20
8.91444
 30
0.0
 40
0
 41
0
  0
VERTEX
  8
0
 10
2.50678
 20
8.91428
 30
0.0
 40
0
 41
0
  0
VERTEX
  8
0
 10
2.50553
 20
8.91428
 30
0.0
 40
0
 41
0
  0
VERTEX
  8
0
 10
2.50418
 20
8.91428
 30
0.0
 40
0
 41
0
  0
VERTEX
  8
0
 10
2.50043
 20
8.9145
 30
0.0
 40
0
 41
0
  0
VERTEX
  8
0
 10
2.50011
 20
8.9145
 30
0.0
 40
0
 41
0
  0
VERTEX
  8
0
 10
2.49924
 20
8.91456
 30
0.0
 40
0
 41
0
  0
VERTEX
  8
0
 10
2.49664
 20
8.91493
 30
0.0
 40
0
 41
0
  0
VERTEX
  8
0
 10
2.49642
 20
8.91493
 30
0.0
 40
0
 41
0
  0
VERTEX
  8
0
 10
2.49599
 20
8.91499
 30
0.0
 40
0
 41
0
  0
VERTEX
  8
0
 10
2.49474
 20
8.9159
 30
0.0
 40
0
 41
0
  0
VERTEX
  8
0
 10
2.49468
 20
8.91601
 30
0.0
 40
0
 41
0
  0
VERTEX
  8
0
 10
2.49468
 20
8.91601
 30
0.0
 40
0
 41
0
  0
VERTEX
  8
0
 10
2.49425
 20
8.91699
 30
0.0
 40
0
 41
0
  0
VERTEX
  8
0
 10
2.49425
 20
8.91732
 30
0.0
 40
0
 41
0
  0
VERTEX
  8
0
 10
2.49425
 20
9.04992
 30
0.0
 40
0
 41
0
  0
VERTEX
  8
0
 10
2.49425
 20
9.04992
 30
0.0
 40
0
 41
0
  0
VERTEX
  8
0
 10
2.49457
 20
9.05132
 30
0.0
 40
0
 41
0
  0
VERTEX
  8
0
 10
2.49468
 20
9.05143
 30
0.0
 40
0
 41
0
  0
VERTEX
  8
0
 10
2.49468
 20
9.05143
 30
0.0
 40
0
 41
0
  0
VERTEX
  8
0
 10
2.49621
 20
9.05231
 30
0.0
 40
0
 41
0
  0
VERTEX
  8
0
 10
2.49642
 20
9.05231
 30
0.0
 40
0
 41
0
  0
VERTEX
  8
0
 10
2.49642
 20
9.05197
 30
0.0
 40
0
 41
0
  0
VERTEX
  8
0
 10
2.49778
 20
9.05106
 30
0.0
 40
0
 41
0
  0
VERTEX
  8
0
 10
2.49972
 20
9.05296
 30
0.0
 40
0
 41
0
  0
VERTEX
  8
0
 10
2.50011
 20
9.05296
 30
0.0
 40
0
 41
0
  0
VERTEX
  8
0
 10
2.50006
 20
9.05268
 30
0.0
 40
0
 41
0
  0
VERTEX
  8
0
 10
2.50179
 20
9.05143
 30
0.0
 40
0
 41
0
  0
VERTEX
  8
0
 10
2.50456
 20
9.05317
 30
0.0
 40
0
 41
0
  0
VERTEX
  8
0
 10
2.50553
 20
9.05317
 30
0.0
 40
0
 41
0
  0
VERTEX
  8
0
 10
2.50553
 20
9.05317
 30
0.0
 40
0
 41
0
  0
VERTEX
  8
0
 10
2.51079
 20
9.053
 30
0.0
 40
0
 41
0
  0
VERTEX
  8
0
 10
2.51118
 20
9.05296
 30
0.0
 40
0
 41
0
  0
VERTEX
  8
0
 10
2.51118
 20
9.05246
 30
0.0
 40
0
 41
0
  0
VERTEX
  8
0
 10
2.51275
 20
9.051
 30
0.0
 40
0
 41
0
  0
VERTEX
  8
0
 10
2.51443
 20
9.0524
 30
0.0
 40
0
 41
0
  0
VERTEX
  8
0
 10
2.51465
 20
9.05231
 30
0.0
 40
0
 41
0
  0
VERTEX
  8
0
 10
2.51449
 20
9.05186
 30
0.0
 40
0
 41
0
  0
VERTEX
  8
0
 10
2.51486
 20
9.05035
 30
0.0
 40
0
 41
0
  0
VERTEX
  8
0
 10
2.51639
 20
9.05143
 30
0.0
 40
0
 41
0
  0
VERTEX
  8
0
 10
2.51639
 20
9.05143
 30
0.0
 40
0
 41
0
  0
VERTEX
  8
0
 10
2.51611
 20
9.05094
 30
0.0
 40
0
 41
0
  0
VERTEX
  8
0
 10
2.51579
 20
9.04921
 30
0.0
 40
0
 41
0
  0
VERTEX
  8
0
 10
2.51704
 20
9.04992
 30
0.0
 40
0
 41
0
  0
VERTEX
  8
0
 10
2.51704
 20
9.04992
 30
0.0
 40
0
 41
0
  0
VERTEX
  8
0
 10
2.51704
 20
8.91732
 30
0.0
 40
0
 41
0
  0
SEQEND
 8
0
  0
POLYLINE
  8
0
 62
     0
 66
     1
 10
0
 20
0
 30
0.0
 70
     1
 40
0
 41
0
  0
VERTEX
  8
0
 10
2.56168
 20
8.91732
 30
0.0
 40
0
 41
0
  0
VERTEX
  8
0
 10
2.56142
 20
8.91721
 30
0.0
 40
0
 41
0
  0
VERTEX
  8
0
 10
2.56114
 20
8.91613
 30
0.0
 40
0
 41
0
  0
VERTEX
  8
0
 10
2.56104
 20
8.91601
 30
0.0
 40
0
 41
0
  0
VERTEX
  8
0
 10
2.56054
 20
8.9159
 30
0.0
 40
0
 41
0
  0
VERTEX
  8
0
 10
2.55951
 20
8.91504
 30
0.0
 40
0
 41
0
  0
VERTEX
  8
0
 10
2.55931
 20
8.91493
 30
0.0
 40
0
 41
0
  0
VERTEX
  8
0
 10
2.55854
 20
8.91487
 30
0.0
 40
0
 41
0
  0
VERTEX
  8
0
 10
2.55615
 20
8.91456
 30
0.0
 40
0
 41
0
  0
VERTEX
  8
0
 10
2.55583
 20
8.9145
 30
0.0
 40
0
 41
0
  0
VERTEX
  8
0
 10
2.55518
 20
8.91444
 30
0.0
 40
0
 41
0
  0
VERTEX
  8
0
 10
2.55143
 20
8.91428
 30
0.0
 40
0
 41
0
  0
VERTEX
  8
0
 10
2.55018
 20
8.91428
 30
0.0
 40
0
 41
0
  0
VERTEX
  8
0
 10
2.54883
 20
8.91428
 30
0.0
 40
0
 41
0
  0
VERTEX
  8
0
 10
2.54508
 20
8.9145
 30
0.0
 40
0
 41
0
  0
VERTEX
  8
0
 10
2.54476
 20
8.9145
 30
0.0
 40
0
 41
0
  0
VERTEX
  8
0
 10
2.54389
 20
8.91456
 30
0.0
 40
0
 41
0
  0
VERTEX
  8
0
 10
2.54129
 20
8.91493
 30
0.0
 40
0
 41
0
  0
VERTEX
  8
0
 10
2.54107
 20
8.91493
 30
0.0
 40
0
 41
0
  0
VERTEX
  8
0
 10
2.54064
 20
8.91499
 30
0.0
 40
0
 41
0
  0
VERTEX
  8
0
 10
2.53939
 20
8.9159
 30
0.0
 40
0
 41
0
  0
VERTEX
  8
0
 10
2.53933
 20
8.91601
 30
0.0
 40
0
 41
0
  0
VERTEX
  8
0
 10
2.53933
 20
8.91601
 30
0.0
 40
0
 41
0
  0
VERTEX
  8
0
 10
2.5389
 20
8.91699
 30
0.0
 40
0
 41
0
  0
VERTEX
  8
0
 10
2.5389
 20
8.91732
 30
0.0
 40
0
 41
0
  0
VERTEX
  8
0
 10
2.5389
 20
9.04992
 30
0.0
 40
0
 41
0
  0
VERTEX
  8
0
 10
2.5389
 20
9.04992
 30
0.0
 40
0
 41
0
  0
VERTEX
  8
0
 10
2.53922
 20
9.05132
 30
0.0
 40
0
 41
0
  0
VERTEX
  8
0
 10
2.53933
 20
9.05143
 30
0.0
 40
0
 41
0
  0
VERTEX
  8
0
 10
2.53933
 20
9.05143
 30
0.0
 40
0
 41
0
  0
VERTEX
  8
0
 10
2.54085
 20
9.05231
 30
0.0
 40
0
 41
0
  0
VERTEX
  8
0
 10
2.54107
 20
9.05231
 30
0.0
 40
0
 41
0
  0
VERTEX
  8
0
 10
2.54107
 20
9.05197
 30
0.0
 40
0
 41
0
  0
VERTEX
  8
0
 10
2.54243
 20
9.05106
 30
0.0
 40
0
 41
0
  0
VERTEX
  8
0
 10
2.54438
 20
9.05296
 30
0.0
 40
0
 41
0
  0
VERTEX
  8
0
 10
2.54476
 20
9.05296
 30
0.0
 40
0
 41
0
  0
VERTEX
  8
0
 10
2.54471
 20
9.05268
 30
0.0
 40
0
 41
0
  0
VERTEX
  8
0
 10
2.54644
 20
9.05143
 30
0.0
 40
0
 41
0
  0
VERTEX
  8
0
 10
2.54921
 20
9.05317
 30
0.0
 40
0
 41
0
  0
VERTEX
  8
0
 10
2.55018
 20
9.05317
 30
0.0
 40
0
 41
0
  0
VERTEX
  8
0
 10
2.55018
 20
9.05317
 30
0.0
 40
0
 41
0
  0
VERTEX
  8
0
 10
2.55544
 20
9.053
 30
0.0
 40
0
 41
0
  0
VERTEX
  8
0
 10
2.55583
 20
9.05296
 30
0.0
 40
0
 41
0
  0
VERTEX
  8
0
 10
2.55583
 20
9.05246
 30
0.0
 40
0
 41
0
  0
VERTEX
  8
0
 10
2.5574
 20
9.051
 30
0.0
 40
0
 41
0
  0
VERTEX
  8
0
 10
2.55908
 20
9.0524
 30
0.0
 40
0
 41
0
  0
VERTEX
  8
0
 10
2.55931
 20
9.05231
 30
0.0
 40
0
 41
0
  0
VERTEX
  8
0
 10
2.55914
 20
9.05186
 30
0.0
 40
0
 41
0
  0
VERTEX
  8
0
 10
2.55951
 20
9.05035
 30
0.0
 40
0
 41
0
  0
VERTEX
  8
0
 10
2.56104
 20
9.05143
 30
0.0
 40
0
 41
0
  0
VERTEX
  8
0
 10
2.56104
 20
9.05143
 30
0.0
 40
0
 41
0
  0
VERTEX
  8
0
 10
2.56076
 20
9.05094
 30
0.0
 40
0
 41
0
  0
VERTEX
  8
0
 10
2.56044
 20
9.04921
 30
0.0
 40
0
 41
0
  0
VERTEX
  8
0
 10
2.56168
 20
9.04992
 30
0.0
 40
0
 41
0
  0
VERTEX
  8
0
 10
2.56168
 20
9.04992
 30
0.0
 40
0
 41
0
  0
VERTEX
  8
0
 10
2.56168
 20
8.91732
 30
0.0
 40
0
 41
0
  0
SEQEND
 8
0
  0
POLYLINE
  8
0
 62
     0
 66
     1
 10
0
 20
0
 30
0.0
 70
     1
 40
0
 41
0
  0
VERTEX
  8
0
 10
2.75521
 20
8.92122
 30
0.0
 40
0
 41
0
  0
VERTEX
  8
0
 10
2.75472
 20
8.92068
 30
0.0
 40
0
 41
0
  0
VERTEX
  8
0
 10
2.7539
 20
8.91857
 30
0.0
 40
0
 41
0
  0
VERTEX
  8
0
 10
2.75478
 20
8.91808
 30
0.0
 40
0
 41
0
  0
VERTEX
  8
0
 10
2.75478
 20
8.91797
 30
0.0
 40
0
 41
0
  0
VERTEX
  8
0
 10
2.75435
 20
8.91769
 30
0.0
 40
0
 41
0
  0
VERTEX
  8
0
 10
2.75401
 20
8.91596
 30
0.0
 40
0
 41
0
  0
VERTEX
  8
0
 10
2.7539
 20
8.91581
 30
0.0
 40
0
 41
0
  0
VERTEX
  8
0
 10
2.75353
 20
8.91569
 30
0.0
 40
0
 41
0
  0
VERTEX
  8
0
 10
2.75293
 20
8.91461
 30
0.0
 40
0
 41
0
  0
VERTEX
  8
0
 10
2.75282
 20
8.9145
 30
0.0
 40
0
 41
0
  0
VERTEX
  8
0
 10
2.7525
 20
8.9145
 30
0.0
 40
0
 41
0
  0
VERTEX
  8
0
 10
2.75174
 20
8.91428
 30
0.0
 40
0
 41
0
  0
VERTEX
  8
0
 10
2.75151
 20
8.91428
 30
0.0
 40
0
 41
0
  0
VERTEX
  8
0
 10
2.68033
 20
8.91428
 30
0.0
 40
0
 41
0
  0
VERTEX
  8
0
 10
2.68001
 20
8.91428
 30
0.0
 40
0
 41
0
  0
VERTEX
  8
0
 10
2.67914
 20
8.9145
 30
0.0
 40
0
 41
0
  0
VERTEX
  8
0
 10
2.67904
 20
8.9145
 30
0.0
 40
0
 41
0
  0
VERTEX
  8
0
 10
2.67871
 20
8.91456
 30
0.0
 40
0
 41
0
  0
VERTEX
  8
0
 10
2.67785
 20
8.91569
 30
0.0
 40
0
 41
0
  0
VERTEX
  8
0
 10
2.67774
 20
8.91581
 30
0.0
 40
0
 41
0
  0
VERTEX
  8
0
 10
2.67757
 20
8.91585
 30
0.0
 40
0
 41
0
  0
VERTEX
  8
0
 10
2.67692
 20
8.91775
 30
0.0
 40
0
 41
0
  0
VERTEX
  8
0
 10
2.67686
 20
8.91797
 30
0.0
 40
0
 41
0
  0
VERTEX
  8
0
 10
2.67686
 20
8.91797
 30
0.0
 40
0
 41
0
  0
VERTEX
  8
0
 10
2.67665
 20
8.92042
 30
0.0
 40
0
 41
0
  0
VERTEX
  8
0
 10
2.67665
 20
8.92122
 30
0.0
 40
0
 41
0
  0
VERTEX
  8
0
 10
2.67665
 20
8.92122
 30
0.0
 40
0
 41
0
  0
VERTEX
  8
0
 10
2.67681
 20
8.92404
 30
0.0
 40
0
 41
0
  0
VERTEX
  8
0
 10
2.67686
 20
8.92426
 30
0.0
 40
0
 41
0
  0
VERTEX
  8
0
 10
2.67686
 20
8.92426
 30
0.0
 40
0
 41
0
  0
VERTEX
  8
0
 10
2.67746
 20
8.92632
 30
0.0
 40
0
 41
0
  0
VERTEX
  8
0
 10
2.67751
 20
8.92643
 30
0.0
 40
0
 41
0
  0
VERTEX
  8
0
 10
2.67751
 20
8.92643
 30
0.0
 40
0
 41
0
  0
VERTEX
  8
0
 10
2.6785
 20
8.92768
 30
0.0
 40
0
 41
0
  0
VERTEX
  8
0
 10
2.6786
 20
8.92774
 30
0.0
 40
0
 41
0
  0
VERTEX
  8
0
 10
2.67854
 20
8.9274
 30
0.0
 40
0
 41
0
  0
VERTEX
  8
0
 10
2.67899
 20
8.92637
 30
0.0
 40
0
 41
0
  0
VERTEX
  8
0
 10
2.67964
 20
8.92817
 30
0.0
 40
0
 41
0
  0
VERTEX
  8
0
 10
2.6799
 20
8.92817
 30
0.0
 40
0
 41
0
  0
VERTEX
  8
0
 10
2.70443
 20
8.92817
 30
0.0
 40
0
 41
0
  0
VERTEX
  8
0
 10
2.70443
 20
9.02539
 30
0.0
 40
0
 41
0
  0
VERTEX
  8
0
 10
2.68207
 20
9.0115
 30
0.0
 40
0
 41
0
  0
VERTEX
  8
0
 10
2.68132
 20
9.01133
 30
0.0
 40
0
 41
0
  0
VERTEX
  8
0
 10
2.67942
 20
9.01025
 30
0.0
 40
0
 41
0
  0
VERTEX
  8
0
 10
2.67925
 20
9.01019
 30
0.0
 40
0
 41
0
  0
VERTEX
  8
0
 10
2.6791
 20
9.00982
 30
0.0
 40
0
 41
0
  0
VERTEX
  8
0
 10
2.67806
 20
9.00874
 30
0.0
 40
0
 41
0
  0
VERTEX
  8
0
 10
2.67785
 20
9.01058
 30
0.0
 40
0
 41
0
  0
VERTEX
  8
0
 10
2.67774
 20
9.01064
 30
0.0
 40
0
 41
0
  0
VERTEX
  8
0
 10
2.67768
 20
9.01042
 30
0.0
 40
0
 41
0
  0
VERTEX
  8
0
 10
2.67703
 20
9.00982
 30
0.0
 40
0
 41
0
  0
VERTEX
  8
0
 10
2.67686
 20
9.01237
 30
0.0
 40
0
 41
0
  0
VERTEX
  8
0
 10
2.67686
 20
9.01258
 30
0.0
 40
0
 41
0
  0
VERTEX
  8
0
 10
2.67681
 20
9.01275
 30
0.0
 40
0
 41
0
  0
VERTEX
  8
0
 10
2.67665
 20
9.01508
 30
0.0
 40
0
 41
0
  0
VERTEX
  8
0
 10
2.67665
 20
9.01585
 30
0.0
 40
0
 41
0
  0
VERTEX
  8
0
 10
2.67665
 20
9.01585
 30
0.0
 40
0
 41
0
  0
VERTEX
  8
0
 10
2.67665
 20
9.01824
 30
0.0
 40
0
 41
0
  0
VERTEX
  8
0
 10
2.67665
 20
9.01824
 30
0.0
 40
0
 41
0
  0
VERTEX
  8
0
 10
2.67665
 20
9.01824
 30
0.0
 40
0
 41
0
  0
VERTEX
  8
0
 10
2.67703
 20
9.01986
 30
0.0
 40
0
 41
0
  0
VERTEX
  8
0
 10
2.67708
 20
9.01997
 30
0.0
 40
0
 41
0
  0
VERTEX
  8
0
 10
2.67708
 20
9.01997
 30
0.0
 40
0
 41
0
  0
VERTEX
  8
0
 10
2.67785
 20
9.021
 30
0.0
 40
0
 41
0
  0
VERTEX
  8
0
 10
2.67796
 20
9.02106
 30
0.0
 40
0
 41
0
  0
VERTEX
  8
0
 10
2.67796
 20
9.02106
 30
0.0
 40
0
 41
0
  0
VERTEX
  8
0
 10
2.6791
 20
9.02208
 30
0.0
 40
0
 41
0
  0
VERTEX
  8
0
 10
2.67925
 20
9.02214
 30
0.0
 40
0
 41
0
  0
VERTEX
  8
0
 10
2.70594
 20
9.03819
 30
0.0
 40
0
 41
0
  0
VERTEX
  8
0
 10
2.70594
 20
9.03792
 30
0.0
 40
0
 41
0
  0
VERTEX
  8
0
 10
2.70637
 20
9.03694
 30
0.0
 40
0
 41
0
  0
VERTEX
  8
0
 10
2.70703
 20
9.03863
 30
0.0
 40
0
 41
0
  0
VERTEX
  8
0
 10
2.70725
 20
9.03863
 30
0.0
 40
0
 41
0
  0
VERTEX
  8
0
 10
2.70719
 20
9.03831
 30
0.0
 40
0
 41
0
  0
VERTEX
  8
0
 10
2.70785
 20
9.03722
 30
0.0
 40
0
 41
0
  0
VERTEX
  8
0
 10
2.70921
 20
9.03907
 30
0.0
 40
0
 41
0
  0
VERTEX
  8
0
 10
2.70942
 20
9.03907
 30
0.0
 40
0
 41
0
  0
VERTEX
  8
0
 10
2.70936
 20
9.03874
 30
0.0
 40
0
 41
0
  0
VERTEX
  8
0
 10
2.71012
 20
9.03754
 30
0.0
 40
0
 41
0
  0
VERTEX
  8
0
 10
2.71169
 20
9.03928
 30
0.0
 40
0
 41
0
  0
VERTEX
  8
0
 10
2.71224
 20
9.03928
 30
0.0
 40
0
 41
0
  0
VERTEX
  8
0
 10
2.71224
 20
9.03928
 30
0.0
 40
0
 41
0
  0
VERTEX
  8
0
 10
2.71533
 20
9.03928
 30
0.0
 40
0
 41
0
  0
VERTEX
  8
0
 10
2.71636
 20
9.03928
 30
0.0
 40
0
 41
0
  0
VERTEX
  8
0
 10
2.71636
 20
9.03928
 30
0.0
 40
0
 41
0
  0
VERTEX
  8
0
 10
2.7214
 20
9.03911
 30
0.0
 40
0
 41
0
  0
VERTEX
  8
0
 10
2.72179
 20
9.03907
 30
0.0
 40
0
 41
0
  0
VERTEX
  8
0
 10
2.72179
 20
9.03857
 30
0.0
 40
0
 41
0
  0
VERTEX
  8
0
 10
2.72336
 20
9.03711
 30
0.0
 40
0
 41
0
  0
VERTEX
  8
0
 10
2.72504
 20
9.03851
 30
0.0
 40
0
 41
0
  0
VERTEX
  8
0
 10
2.72526
 20
9.03842
 30
0.0
 40
0
 41
0
  0
VERTEX
  8
0
 10
2.7251
 20
9.03803
 30
0.0
 40
0
 41
0
  0
VERTEX
  8
0
 10
2.72542
 20
9.03646
 30
0.0
 40
0
 41
0
  0
VERTEX
  8
0
 10
2.727
 20
9.0376
 30
0.0
 40
0
 41
0
  0
VERTEX
  8
0
 10
2.727
 20
9.03754
 30
0.0
 40
0
 41
0
  0
VERTEX
  8
0
 10
2.72672
 20
9.03711
 30
0.0
 40
0
 41
0
  0
VERTEX
  8
0
 10
2.72624
 20
9.0356
 30
0.0
 40
0
 41
0
  0
VERTEX
  8
0
 10
2.72743
 20
9.03668
 30
0.0
 40
0
 41
0
  0
VERTEX
  8
0
 10
2.72743
 20
9.03668
 30
0.0
 40
0
 41
0
  0
VERTEX
  8
0
 10
2.72743
 20
8.92817
 30
0.0
 40
0
 41
0
  0
VERTEX
  8
0
 10
2.75151
 20
8.92817
 30
0.0
 40
0
 41
0
  0
VERTEX
  8
0
 10
2.75151
 20
8.92817
 30
0.0
 40
0
 41
0
  0
VERTEX
  8
0
 10
2.75293
 20
8.92785
 30
0.0
 40
0
 41
0
  0
VERTEX
  8
0
 10
2.75304
 20
8.92774
 30
0.0
 40
0
 41
0
  0
VERTEX
  8
0
 10
2.75282
 20
8.92725
 30
0.0
 40
0
 41
0
  0
VERTEX
  8
0
 10
2.75271
 20
8.92551
 30
0.0
 40
0
 41
0
  0
VERTEX
  8
0
 10
2.75412
 20
8.92643
 30
0.0
 40
0
 41
0
  0
VERTEX
  8
0
 10
2.75412
 20
8.92643
 30
0.0
 40
0
 41
0
  0
VERTEX
  8
0
 10
2.75385
 20
8.92589
 30
0.0
 40
0
 41
0
  0
VERTEX
  8
0
 10
2.75364
 20
8.92393
 30
0.0
 40
0
 41
0
  0
VERTEX
  8
0
 10
2.75499
 20
8.92426
 30
0.0
 40
0
 41
0
  0
VERTEX
  8
0
 10
2.75499
 20
8.92426
 30
0.0
 40
0
 41
0
  0
VERTEX
  8
0
 10
2.75461
 20
8.92372
 30
0.0
 40
0
 41
0
  0
VERTEX
  8
0
 10
2.75401
 20
8.9216
 30
0.0
 40
0
 41
0
  0
VERTEX
  8
0
 10
2.75521
 20
8.92133
 30
0.0
 40
0
 41
0
  0
VERTEX
  8
0
 10
2.75521
 20
8.92122
 30
0.0
 40
0
 41
0
  0
SEQEND
 8
0
  0
POLYLINE
  8
0
 62
     0
 66
     1
 10
0
 20
0
 30
0.0
 70
     1
 40
0
 41
0
  0
VERTEX
  8
0
 10
2.85883
 20
8.977
 30
0.0
 40
0
 41
0
  0
VERTEX
  8
0
 10
2.85883
 20
8.9706
 30
0.0
 40
0
 41
0
  0
VERTEX
  8
0
 10
2.85667
 20
8.95335
 30
0.0
 40
0
 41
0
  0
VERTEX
  8
0
 10
2.85622
 20
8.95139
 30
0.0
 40
0
 41
0
  0
VERTEX
  8
0
 10
2.85482
 20
8.94874
 30
0.0
 40
0
 41
0
  0
VERTEX
  8
0
 10
2.85135
 20
8.93956
 30
0.0
 40
0
 41
0
  0
VERTEX
  8
0
 10
2.84874
 20
8.93306
 30
0.0
 40
0
 41
0
  0
VERTEX
  8
0
 10
2.84776
 20
8.93164
 30
0.0
 40
0
 41
0
  0
VERTEX
  8
0
 10
2.84651
 20
8.93001
 30
0.0
 40
0
 41
0
  0
VERTEX
  8
0
 10
2.83393
 20
8.9196
 30
0.0
 40
0
 41
0
  0
VERTEX
  8
0
 10
2.83236
 20
8.91883
 30
0.0
 40
0
 41
0
  0
VERTEX
  8
0
 10
2.83062
 20
8.91769
 30
0.0
 40
0
 41
0
  0
VERTEX
  8
0
 10
2.81418
 20
8.91428
 30
0.0
 40
0
 41
0
  0
VERTEX
  8
0
 10
2.80871
 20
8.91428
 30
0.0
 40
0
 41
0
  0
VERTEX
  8
0
 10
2.80311
 20
8.91428
 30
0.0
 40
0
 41
0
  0
VERTEX
  8
0
 10
2.78788
 20
8.91775
 30
0.0
 40
0
 41
0
  0
VERTEX
  8
0
 10
2.78635
 20
8.9184
 30
0.0
 40
0
 41
0
  0
VERTEX
  8
0
 10
2.78396
 20
8.91878
 30
0.0
 40
0
 41
0
  0
VERTEX
  8
0
 10
2.77686
 20
8.92296
 30
0.0
 40
0
 41
0
  0
VERTEX
  8
0
 10
2.77274
 20
8.92904
 30
0.0
 40
0
 41
0
  0
VERTEX
  8
0
 10
2.77181
 20
8.93033
 30
0.0
 40
0
 41
0
  0
VERTEX
  8
0
 10
2.77001
 20
8.93153
 30
0.0
 40
0
 41
0
  0
VERTEX
  8
0
 10
2.76585
 20
8.93896
 30
0.0
 40
0
 41
0
  0
VERTEX
  8
0
 10
2.76438
 20
8.94797
 30
0.0
 40
0
 41
0
  0
VERTEX
  8
0
 10
2.764
 20
8.94987
 30
0.0
 40
0
 41
0
  0
VERTEX
  8
0
 10
2.7634
 20
8.95117
 30
0.0
 40
0
 41
0
  0
VERTEX
  8
0
 10
2.76161
 20
8.97021
 30
0.0
 40
0
 41
0
  0
VERTEX
  8
0
 10
2.76161
 20
8.97657
 30
0.0
 40
0
 41
0
  0
VERTEX
  8
0
 10
2.76161
 20
8.98292
 30
0.0
 40
0
 41
0
  0
VERTEX
  8
0
 10
2.76378
 20
9.00006
 30
0.0
 40
0
 41
0
  0
VERTEX
  8
0
 10
2.76421
 20
9.00196
 30
0.0
 40
0
 41
0
  0
VERTEX
  8
0
 10
2.76443
 20
9.00358
 30
0.0
 40
0
 41
0
  0
VERTEX
  8
0
 10
2.77171
 20
9.02056
 30
0.0
 40
0
 41
0
  0
VERTEX
  8
0
 10
2.77268
 20
9.02192
 30
0.0
 40
0
 41
0
  0
VERTEX
  8
0
 10
2.77274
 20
9.02246
 30
0.0
 40
0
 41
0
  0
VERTEX
  8
0
 10
2.77806
 20
9.02794
 30
0.0
 40
0
 41
0
  0
VERTEX
  8
0
 10
2.78646
 20
9.03396
 30
0.0
 40
0
 41
0
  0
VERTEX
  8
0
 10
2.78808
 20
9.03472
 30
0.0
 40
0
 41
0
  0
VERTEX
  8
0
 10
2.78863
 20
9.03472
 30
0.0
 40
0
 41
0
  0
VERTEX
  8
0
 10
2.7971
 20
9.037
 30
0.0
 40
0
 41
0
  0
VERTEX
  8
0
 10
2.80789
 20
9.03928
 30
0.0
 40
0
 41
0
  0
VERTEX
  8
0
 10
2.81153
 20
9.03928
 30
0.0
 40
0
 41
0
  0
VERTEX
  8
0
 10
2.81711
 20
9.03928
 30
0.0
 40
0
 41
0
  0
VERTEX
  8
0
 10
2.83236
 20
9.03586
 30
0.0
 40
0
 41
0
  0
VERTEX
  8
0
 10
2.83388
 20
9.03515
 30
0.0
 40
0
 41
0
  0
VERTEX
  8
0
 10
2.83512
 20
9.03369
 30
0.0
 40
0
 41
0
  0
VERTEX
  8
0
 10
2.8475
 20
9.02436
 30
0.0
 40
0
 41
0
  0
VERTEX
  8
0
 10
2.84842
 20
9.023
 30
0.0
 40
0
 41
0
  0
VERTEX
  8
0
 10
2.84907
 20
9.02078
 30
0.0
 40
0
 41
0
  0
VERTEX
  8
0
 10
2.85601
 20
9.00543
 30
0.0
 40
0
 41
0
  0
VERTEX
  8
0
 10
2.85644
 20
9.00347
 30
0.0
 40
0
 41
0
  0
VERTEX
  8
0
 10
2.85585
 20
9.00108
 30
0.0
 40
0
 41
0
  0
VERTEX
  8
0
 10
2.85678
 20
8.9904
 30
0.0
 40
0
 41
0
  0
VERTEX
  8
0
 10
2.85883
 20
8.98036
 30
0.0
 40
0
 41
0
  0
VERTEX
  8
0
 10
2.85883
 20
8.977
 30
0.0
 40
0
 41
0
  0
SEQEND
 8
0
  0
POLYLINE
  8
0
 62
     0
 66
     1
 10
0
 20
0
 30
0.0
 70
     1
 40
0
 41
0
  0
VERTEX
  8
0
 10
2.83518
 20
8.97592
 30
0.0
 40
0
 41
0
  0
VERTEX
  8
0
 10
2.83479
 20
8.97694
 30
0.0
 40
0
 41
0
  0
VERTEX
  8
0
 10
2.83464
 20
8.99083
 30
0.0
 40
0
 41
0
  0
VERTEX
  8
0
 10
2.83453
 20
8.99197
 30
0.0
 40
0
 41
0
  0
VERTEX
  8
0
 10
2.8341
 20
8.99251
 30
0.0
 40
0
 41
0
  0
VERTEX
  8
0
 10
2.83279
 20
9.00369
 30
0.0
 40
0
 41
0
  0
VERTEX
  8
0
 10
2.83257
 20
9.00456
 30
0.0
 40
0
 41
0
  0
VERTEX
  8
0
 10
2.83225
 20
9.00493
 30
0.0
 40
0
 41
0
  0
VERTEX
  8
0
 10
2.82964
 20
9.01346
 30
0.0
 40
0
 41
0
  0
VERTEX
  8
0
 10
2.82932
 20
9.01411
 30
0.0
 40
0
 41
0
  0
VERTEX
  8
0
 10
2.82796
 20
9.01454
 30
0.0
 40
0
 41
0
  0
VERTEX
  8
0
 10
2.82497
 20
9.02001
 30
0.0
 40
0
 41
0
  0
VERTEX
  8
0
 10
2.82454
 20
9.0204
 30
0.0
 40
0
 41
0
  0
VERTEX
  8
0
 10
2.82374
 20
9.02018
 30
0.0
 40
0
 41
0
  0
VERTEX
  8
0
 10
2.82069
 20
9.02154
 30
0.0
 40
0
 41
0
  0
VERTEX
  8
0
 10
2.81885
 20
9.02393
 30
0.0
 40
0
 41
0
  0
VERTEX
  8
0
 10
2.81825
 20
9.02408
 30
0.0
 40
0
 41
0
  0
VERTEX
  8
0
 10
2.8176
 20
9.02339
 30
0.0
 40
0
 41
0
  0
VERTEX
  8
0
 10
2.81222
 20
9.02539
 30
0.0
 40
0
 41
0
  0
VERTEX
  8
0
 10
2.81044
 20
9.02539
 30
0.0
 40
0
 41
0
  0
VERTEX
  8
0
 10
2.80724
 20
9.02539
 30
0.0
 40
0
 41
0
  0
VERTEX
  8
0
 10
2.79844
 20
9.02235
 30
0.0
 40
0
 41
0
  0
VERTEX
  8
0
 10
2.79764
 20
9.02171
 30
0.0
 40
0
 41
0
  0
VERTEX
  8
0
 10
2.79622
 20
9.02035
 30
0.0
 40
0
 41
0
  0
VERTEX
  8
0
 10
2.79226
 20
9.01606
 30
0.0
 40
0
 41
0
  0
VERTEX
  8
0
 10
2.79047
 20
9.01258
 30
0.0
 40
0
 41
0
  0
VERTEX
  8
0
 10
2.79004
 20
9.0115
 30
0.0
 40
0
 41
0
  0
VERTEX
  8
0
 10
2.7895
 20
9.01042
 30
0.0
 40
0
 41
0
  0
VERTEX
  8
0
 10
2.78629
 20
8.99778
 30
0.0
 40
0
 41
0
  0
VERTEX
  8
0
 10
2.78614
 20
8.99631
 30
0.0
 40
0
 41
0
  0
VERTEX
  8
0
 10
2.7851
 20
8.99393
 30
0.0
 40
0
 41
0
  0
VERTEX
  8
0
 10
2.78413
 20
8.98574
 30
0.0
 40
0
 41
0
  0
VERTEX
  8
0
 10
2.78526
 20
8.97971
 30
0.0
 40
0
 41
0
  0
VERTEX
  8
0
 10
2.78526
 20
8.97765
 30
0.0
 40
0
 41
0
  0
VERTEX
  8
0
 10
2.78444
 20
8.97478
 30
0.0
 40
0
 41
0
  0
VERTEX
  8
0
 10
2.78435
 20
8.96419
 30
0.0
 40
0
 41
0
  0
VERTEX
  8
0
 10
2.78635
 20
8.95628
 30
0.0
 40
0
 41
0
  0
VERTEX
  8
0
 10
2.78657
 20
8.95464
 30
0.0
 40
0
 41
0
  0
VERTEX
  8
0
 10
2.78597
 20
8.95236
 30
0.0
 40
0
 41
0
  0
VERTEX
  8
0
 10
2.787
 20
8.94461
 30
0.0
 40
0
 41
0
  0
VERTEX
  8
0
 10
2.79042
 20
8.94043
 30
0.0
 40
0
 41
0
  0
VERTEX
  8
0
 10
2.7909
 20
8.93946
 30
0.0
 40
0
 41
0
  0
VERTEX
  8
0
 10
2.79124
 20
8.93778
 30
0.0
 40
0
 41
0
  0
VERTEX
  8
0
 10
2.79411
 20
8.93294
 30
0.0
 40
0
 41
0
  0
VERTEX
  8
0
 10
2.79775
 20
8.93126
 30
0.0
 40
0
 41
0
  0
VERTEX
  8
0
 10
2.7985
 20
8.93078
 30
0.0
 40
0
 41
0
  0
VERTEX
  8
0
 10
2.7985
 20
8.93018
 30
0.0
 40
0
 41
0
  0
VERTEX
  8
0
 10
2.80257
 20
8.9285
 30
0.0
 40
0
 41
0
  0
VERTEX
  8
0
 10
2.80811
 20
8.92817
 30
0.0
 40
0
 41
0
  0
VERTEX
  8
0
 10
2.81
 20
8.92817
 30
0.0
 40
0
 41
0
  0
VERTEX
  8
0
 10
2.81222
 20
8.92817
 30
0.0
 40
0
 41
0
  0
VERTEX
  8
0
 10
2.81825
 20
8.92947
 30
0.0
 40
0
 41
0
  0
VERTEX
  8
0
 10
2.8189
 20
8.92969
 30
0.0
 40
0
 41
0
  0
VERTEX
  8
0
 10
2.81939
 20
8.92985
 30
0.0
 40
0
 41
0
  0
VERTEX
  8
0
 10
2.82514
 20
8.93397
 30
0.0
 40
0
 41
0
  0
VERTEX
  8
0
 10
2.82563
 20
8.93446
 30
0.0
 40
0
 41
0
  0
VERTEX
  8
0
 10
2.82563
 20
8.93446
 30
0.0
 40
0
 41
0
  0
VERTEX
  8
0
 10
2.8271
 20
8.93722
 30
0.0
 40
0
 41
0
  0
VERTEX
  8
0
 10
2.82986
 20
8.94135
 30
0.0
 40
0
 41
0
  0
VERTEX
  8
0
 10
2.83018
 20
8.94206
 30
0.0
 40
0
 41
0
  0
VERTEX
  8
0
 10
2.82943
 20
8.94282
 30
0.0
 40
0
 41
0
  0
VERTEX
  8
0
 10
2.83301
 20
8.95074
 30
0.0
 40
0
 41
0
  0
VERTEX
  8
0
 10
2.83322
 20
8.95161
 30
0.0
 40
0
 41
0
  0
VERTEX
  8
0
 10
2.83322
 20
8.95449
 30
0.0
 40
0
 41
0
  0
VERTEX
  8
0
 10
2.83464
 20
8.96213
 30
0.0
 40
0
 41
0
  0
VERTEX
  8
0
 10
2.83475
 20
8.96311
 30
0.0
 40
0
 41
0
  0
VERTEX
  8
0
 10
2.83447
 20
8.96354
 30
0.0
 40
0
 41
0
  0
VERTEX
  8
0
 10
2.83518
 20
8.97282
 30
0.0
 40
0
 41
0
  0
VERTEX
  8
0
 10
2.83518
 20
8.97592
 30
0.0
 40
0
 41
0
  0
SEQEND
 8
0
  0
POLYLINE
  8
0
 62
     0
 66
     1
 10
0
 20
0
 30
0.0
 70
     1
 40
0
 41
0
  0
VERTEX
  8
0
 10
3.04867
 20
8.91732
 30
0.0
 40
0
 41
0
  0
VERTEX
  8
0
 10
3.04818
 20
8.91715
 30
0.0
 40
0
 41
0
  0
VERTEX
  8
0
 10
3.04699
 20
8.91629
 30
0.0
 40
0
 41
0
  0
VERTEX
  8
0
 10
3.04824
 20
8.91601
 30
0.0
 40
0
 41
0
  0
VERTEX
  8
0
 10
3.04824
 20
8.91601
 30
0.0
 40
0
 41
0
  0
VERTEX
  8
0
 10
3.04785
 20
8.91596
 30
0.0
 40
0
 41
0
  0
VERTEX
  8
0
 10
3.0471
 20
8.91504
 30
0.0
 40
0
 41
0
  0
VERTEX
  8
0
 10
3.04693
 20
8.91493
 30
0.0
 40
0
 41
0
  0
VERTEX
  8
0
 10
3.04628
 20
8.91487
 30
0.0
 40
0
 41
0
  0
VERTEX
  8
0
 10
3.0446
 20
8.91456
 30
0.0
 40
0
 41
0
  0
VERTEX
  8
0
 10
3.04432
 20
8.9145
 30
0.0
 40
0
 41
0
  0
VERTEX
  8
0
 10
3.0434
 20
8.91444
 30
0.0
 40
0
 41
0
  0
VERTEX
  8
0
 10
3.04081
 20
8.91428
 30
0.0
 40
0
 41
0
  0
VERTEX
  8
0
 10
3.03999
 20
8.91428
 30
0.0
 40
0
 41
0
  0
VERTEX
  8
0
 10
3.03896
 20
8.91428
 30
0.0
 40
0
 41
0
  0
VERTEX
  8
0
 10
3.03608
 20
8.9145
 30
0.0
 40
0
 41
0
  0
VERTEX
  8
0
 10
3.03586
 20
8.9145
 30
0.0
 40
0
 41
0
  0
VERTEX
  8
0
 10
3.03521
 20
8.9145
 30
0.0
 40
0
 41
0
  0
VERTEX
  8
0
 10
3.03342
 20
8.9151
 30
0.0
 40
0
 41
0
  0
VERTEX
  8
0
 10
3.03326
 20
8.91515
 30
0.0
 40
0
 41
0
  0
VERTEX
  8
0
 10
3.03288
 20
8.91515
 30
0.0
 40
0
 41
0
  0
VERTEX
  8
0
 10
3.03185
 20
8.91613
 30
0.0
 40
0
 41
0
  0
VERTEX
  8
0
 10
3.03174
 20
8.91624
 30
0.0
 40
0
 41
0
  0
VERTEX
  8
0
 10
3.03153
 20
8.91624
 30
0.0
 40
0
 41
0
  0
VERTEX
  8
0
 10
3.03093
 20
8.91803
 30
0.0
 40
0
 41
0
  0
VERTEX
  8
0
 10
3.03088
 20
8.91818
 30
0.0
 40
0
 41
0
  0
VERTEX
  8
0
 10
3.01958
 20
8.94726
 30
0.0
 40
0
 41
0
  0
VERTEX
  8
0
 10
3.0185
 20
8.9476
 30
0.0
 40
0
 41
0
  0
VERTEX
  8
0
 10
3.01628
 20
8.95139
 30
0.0
 40
0
 41
0
  0
VERTEX
  8
0
 10
3.01617
 20
8.95574
 30
0.0
 40
0
 41
0
  0
VERTEX
  8
0
 10
3.0159
 20
8.95638
 30
0.0
 40
0
 41
0
  0
VERTEX
  8
0
 10
3.01503
 20
8.95703
 30
0.0
 40
0
 41
0
  0
VERTEX
  8
0
 10
3.01238
 20
8.96306
 30
0.0
 40
0
 41
0
  0
VERTEX
  8
0
 10
3.01199
 20
8.96354
 30
0.0
 40
0
 41
0
  0
VERTEX
  8
0
 10
3.01129
 20
8.96343
 30
0.0
 40
0
 41
0
  0
VERTEX
  8
0
 10
3.00689
 20
8.96789
 30
0.0
 40
0
 41
0
  0
VERTEX
  8
0
 10
3.00635
 20
8.9681
 30
0.0
 40
0
 41
0
  0
VERTEX
  8
0
 10
3.00532
 20
8.96761
 30
0.0
 40
0
 41
0
  0
VERTEX
  8
0
 10
3.00146
 20
8.96789
 30
0.0
 40
0
 41
0
  0
VERTEX
  8
0
 10
2.9994
 20
8.96983
 30
0.0
 40
0
 41
0
  0
VERTEX
  8
0
 10
2.99875
 20
8.96983
 30
0.0
 40
0
 41
0
  0
VERTEX
  8
0
 10
2.99007
 20
8.96983
 30
0.0
 40
0
 41
0
  0
VERTEX
  8
0
 10
2.99007
 20
8.91732
 30
0.0
 40
0
 41
0
  0
VERTEX
  8
0
 10
2.98981
 20
8.91721
 30
0.0
 40
0
 41
0
  0
VERTEX
  8
0
 10
2.98953
 20
8.91613
 30
0.0
 40
0
 41
0
  0
VERTEX
  8
0
 10
2.98942
 20
8.91601
 30
0.0
 40
0
 41
0
  0
VERTEX
  8
0
 10
2.98888
 20
8.91585
 30
0.0
 40
0
 41
0
  0
VERTEX
  8
0
 10
2.98768
 20
8.91504
 30
0.0
 40
0
 41
0
  0
VERTEX
  8
0
 10
2.98747
 20
8.91493
 30
0.0
 40
0
 41
0
  0
VERTEX
  8
0
 10
2.98671
 20
8.91487
 30
0.0
 40
0
 41
0
  0
VERTEX
  8
0
 10
2.98438
 20
8.91456
 30
0.0
 40
0
 41
0
  0
VERTEX
  8
0
 10
2.984
 20
8.9145
 30
0.0
 40
0
 41
0
  0
VERTEX
  8
0
 10
2.98335
 20
8.91444
 30
0.0
 40
0
 41
0
  0
VERTEX
  8
0
 10
2.97976
 20
8.91428
 30
0.0
 40
0
 41
0
  0
VERTEX
  8
0
 10
2.97857
 20
8.91428
 30
0.0
 40
0
 41
0
  0
VERTEX
  8
0
 10
2.97715
 20
8.91428
 30
0.0
 40
0
 41
0
  0
VERTEX
  8
0
 10
2.97331
 20
8.9145
 30
0.0
 40
0
 41
0
  0
VERTEX
  8
0
 10
2.97293
 20
8.9145
 30
0.0
 40
0
 41
0
  0
VERTEX
  8
0
 10
2.97206
 20
8.91456
 30
0.0
 40
0
 41
0
  0
VERTEX
  8
0
 10
2.96967
 20
8.91493
 30
0.0
 40
0
 41
0
  0
VERTEX
  8
0
 10
2.96946
 20
8.91493
 30
0.0
 40
0
 41
0
  0
VERTEX
  8
0
 10
2.96903
 20
8.91499
 30
0.0
 40
0
 41
0
  0
VERTEX
  8
0
 10
2.96761
 20
8.9159
 30
0.0
 40
0
 41
0
  0
VERTEX
  8
0
 10
2.9675
 20
8.91601
 30
0.0
 40
0
 41
0
  0
VERTEX
  8
0
 10
2.9675
 20
8.91601
 30
0.0
 40
0
 41
0
  0
VERTEX
  8
0
 10
2.96707
 20
8.91699
 30
0.0
 40
0
 41
0
  0
VERTEX
  8
0
 10
2.96707
 20
8.91732
 30
0.0
 40
0
 41
0
  0
VERTEX
  8
0
 10
2.96707
 20
9.03256
 30
0.0
 40
0
 41
0
  0
VERTEX
  8
0
 10
2.96707
 20
9.03386
 30
0.0
 40
0
 41
0
  0
VERTEX
  8
0
 10
2.96847
 20
9.03754
 30
0.0
 40
0
 41
0
  0
VERTEX
  8
0
 10
2.96881
 20
9.03776
 30
0.0
 40
0
 41
0
  0
VERTEX
  8
0
 10
2.96881
 20
9.03776
 30
0.0
 40
0
 41
0
  0
VERTEX
  8
0
 10
2.97174
 20
9.03928
 30
0.0
 40
0
 41
0
  0
VERTEX
  8
0
 10
2.97271
 20
9.03928
 30
0.0
 40
0
 41
0
  0
VERTEX
  8
0
 10
2.99701
 20
9.03928
 30
0.0
 40
0
 41
0
  0
VERTEX
  8
0
 10
2.99881
 20
9.03928
 30
0.0
 40
0
 41
0
  0
VERTEX
  8
0
 10
3.00369
 20
9.03911
 30
0.0
 40
0
 41
0
  0
VERTEX
  8
0
 10
3.00418
 20
9.03907
 30
0.0
 40
0
 41
0
  0
VERTEX
  8
0
 10
3.00407
 20
9.03874
 30
0.0
 40
0
 41
0
  0
VERTEX
  8
0
 10
3.00569
 20
9.03711
 30
0.0
 40
0
 41
0
  0
VERTEX
  8
0
 10
3.00896
 20
9.03851
 30
0.0
 40
0
 41
0
  0
VERTEX
  8
0
 10
3.00939
 20
9.03842
 30
0.0
 40
0
 41
0
  0
VERTEX
  8
0
 10
3.01042
 20
9.03717
 30
0.0
 40
0
 41
0
  0
VERTEX
  8
0
 10
3.02024
 20
9.035
 30
0.0
 40
0
 41
0
  0
VERTEX
  8
0
 10
3.02111
 20
9.0345
 30
0.0
 40
0
 41
0
  0
VERTEX
  8
0
 10
3.02094
 20
9.03364
 30
0.0
 40
0
 41
0
  0
VERTEX
  8
0
 10
3.02414
 20
9.03033
 30
0.0
 40
0
 41
0
  0
VERTEX
  8
0
 10
3.02897
 20
9.02832
 30
0.0
 40
0
 41
0
  0
VERTEX
  8
0
 10
3.02957
 20
9.02756
 30
0.0
 40
0
 41
0
  0
VERTEX
  8
0
 10
3.02957
 20
9.02518
 30
0.0
 40
0
 41
0
  0
VERTEX
  8
0
 10
3.03444
 20
9.01893
 30
0.0
 40
0
 41
0
  0
VERTEX
  8
0
 10
3.03478
 20
9.01801
 30
0.0
 40
0
 41
0
  0
VERTEX
  8
0
 10
3.03413
 20
9.01676
 30
0.0
 40
0
 41
0
  0
VERTEX
  8
0
 10
3.0345
 20
9.01167
 30
0.0
 40
0
 41
0
  0
VERTEX
  8
0
 10
3.03651
 20
9.00765
 30
0.0
 40
0
 41
0
  0
VERTEX
  8
0
 10
3.03651
 20
9.00629
 30
0.0
 40
0
 41
0
  0
VERTEX
  8
0
 10
3.03651
 20
9.00347
 30
0.0
 40
0
 41
0
  0
VERTEX
  8
0
 10
3.03543
 20
8.99588
 30
0.0
 40
0
 41
0
  0
VERTEX
  8
0
 10
3.03521
 20
8.99501
 30
0.0
 40
0
 41
0
  0
VERTEX
  8
0
 10
3.03418
 20
8.99365
 30
0.0
 40
0
 41
0
  0
VERTEX
  8
0
 10
3.03196
 20
8.98887
 30
0.0
 40
0
 41
0
  0
VERTEX
  8
0
 10
3.03162
 20
8.98665
 30
0.0
 40
0
 41
0
  0
VERTEX
  8
0
 10
3.03131
 20
8.98611
 30
0.0
 40
0
 41
0
  0
VERTEX
  8
0
 10
3.03017
 20
8.98529
 30
0.0
 40
0
 41
0
  0
VERTEX
  8
0
 10
3.02599
 20
8.98008
 30
0.0
 40
0
 41
0
  0
VERTEX
  8
0
 10
3.02544
 20
8.9796
 30
0.0
 40
0
 41
0
  0
VERTEX
  8
0
 10
3.02462
 20
8.97835
 30
0.0
 40
0
 41
0
  0
VERTEX
  8
0
 10
3.01833
 20
8.97515
 30
0.0
 40
0
 41
0
  0
VERTEX
  8
0
 10
3.01764
 20
8.97483
 30
0.0
 40
0
 41
0
  0
VERTEX
  8
0
 10
3.01753
 20
8.97456
 30
0.0
 40
0
 41
0
  0
VERTEX
  8
0
 10
3.02262
 20
8.97174
 30
0.0
 40
0
 41
0
  0
VERTEX
  8
0
 10
3.02306
 20
8.97136
 30
0.0
 40
0
 41
0
  0
VERTEX
  8
0
 10
3.02344
 20
8.97092
 30
0.0
 40
0
 41
0
  0
VERTEX
  8
0
 10
3.02729
 20
8.96707
 30
0.0
 40
0
 41
0
  0
VERTEX
  8
0
 10
3.02761
 20
8.96658
 30
0.0
 40
0
 41
0
  0
VERTEX
  8
0
 10
3.02756
 20
8.96556
 30
0.0
 40
0
 41
0
  0
VERTEX
  8
0
 10
3.02908
 20
8.96218
 30
0.0
 40
0
 41
0
  0
VERTEX
  8
0
 10
3.03142
 20
8.9605
 30
0.0
 40
0
 41
0
  0
VERTEX
  8
0
 10
3.03174
 20
8.95985
 30
0.0
 40
0
 41
0
  0
VERTEX
  8
0
 10
3.03131
 20
8.95893
 30
0.0
 40
0
 41
0
  0
VERTEX
  8
0
 10
3.0351
 20
8.95236
 30
0.0
 40
0
 41
0
  0
VERTEX
  8
0
 10
3.03543
 20
8.95161
 30
0.0
 40
0
 41
0
  0
VERTEX
  8
0
 10
3.0465
 20
8.92426
 30
0.0
 40
0
 41
0
  0
VERTEX
  8
0
 10
3.04606
 20
8.92339
 30
0.0
 40
0
 41
0
  0
VERTEX
  8
0
 10
3.04628
 20
8.92008
 30
0.0
 40
0
 41
0
  0
VERTEX
  8
0
 10
3.04812
 20
8.91971
 30
0.0
 40
0
 41
0
  0
VERTEX
  8
0
 10
3.04824
 20
8.91949
 30
0.0
 40
0
 41
0
  0
VERTEX
  8
0
 10
3.04779
 20
8.91922
 30
0.0
 40
0
 41
0
  0
VERTEX
  8
0
 10
3.04704
 20
8.91764
 30
0.0
 40
0
 41
0
  0
VERTEX
  8
0
 10
3.04867
 20
8.91743
 30
0.0
 40
0
 41
0
  0
VERTEX
  8
0
 10
3.04867
 20
8.91732
 30
0.0
 40
0
 41
0
  0
SEQEND
 8
0
  0
POLYLINE
  8
0
 62
     0
 66
     1
 10
0
 20
0
 30
0.0
 70
     1
 40
0
 41
0
  0
VERTEX
  8
0
 10
3.01286
 20
9.00456
 30
0.0
 40
0
 41
0
  0
VERTEX
  8
0
 10
3.01247
 20
9.00521
 30
0.0
 40
0
 41
0
  0
VERTEX
  8
0
 10
3.01124
 20
9.01611
 30
0.0
 40
0
 41
0
  0
VERTEX
  8
0
 10
3.0109
 20
9.01693
 30
0.0
 40
0
 41
0
  0
VERTEX
  8
0
 10
3.01042
 20
9.01731
 30
0.0
 40
0
 41
0
  0
VERTEX
  8
0
 10
3.00569
 20
9.02376
 30
0.0
 40
0
 41
0
  0
VERTEX
  8
0
 10
3.00504
 20
9.02408
 30
0.0
 40
0
 41
0
  0
VERTEX
  8
0
 10
3.0045
 20
9.02365
 30
0.0
 40
0
 41
0
  0
VERTEX
  8
0
 10
3.00233
 20
9.02306
 30
0.0
 40
0
 41
0
  0
VERTEX
  8
0
 10
3.00211
 20
9.02496
 30
0.0
 40
0
 41
0
  0
VERTEX
  8
0
 10
3.00201
 20
9.02496
 30
0.0
 40
0
 41
0
  0
VERTEX
  8
0
 10
3.00157
 20
9.02442
 30
0.0
 40
0
 41
0
  0
VERTEX
  8
0
 10
2.99924
 20
9.0236
 30
0.0
 40
0
 41
0
  0
VERTEX
  8
0
 10
2.99804
 20
9.02539
 30
0.0
 40
0
 41
0
  0
VERTEX
  8
0
 10
2.99767
 20
9.02539
 30
0.0
 40
0
 41
0
  0
VERTEX
  8
0
 10
2.99007
 20
9.02539
 30
0.0
 40
0
 41
0
  0
VERTEX
  8
0
 10
2.99007
 20
8.98372
 30
0.0
 40
0
 41
0
  0
VERTEX
  8
0
 10
2.99897
 20
8.98372
 30
0.0
 40
0
 41
0
  0
VERTEX
  8
0
 10
3.00049
 20
8.98372
 30
0.0
 40
0
 41
0
  0
VERTEX
  8
0
 10
3.00461
 20
8.98503
 30
0.0
 40
0
 41
0
  0
VERTEX
  8
0
 10
3.00504
 20
8.98525
 30
0.0
 40
0
 41
0
  0
VERTEX
  8
0
 10
3.00504
 20
8.98525
 30
0.0
 40
0
 41
0
  0
VERTEX
  8
0
 10
3.00906
 20
8.98936
 30
0.0
 40
0
 41
0
  0
VERTEX
  8
0
 10
3.00939
 20
8.98981
 30
0.0
 40
0
 41
0
  0
VERTEX
  8
0
 10
3.0096
 20
8.98981
 30
0.0
 40
0
 41
0
  0
VERTEX
  8
0
 10
3.01183
 20
8.99571
 30
0.0
 40
0
 41
0
  0
VERTEX
  8
0
 10
3.01199
 20
8.99631
 30
0.0
 40
0
 41
0
  0
VERTEX
  8
0
 10
3.01199
 20
8.99631
 30
0.0
 40
0
 41
0
  0
VERTEX
  8
0
 10
3.01221
 20
8.99875
 30
0.0
 40
0
 41
0
  0
VERTEX
  8
0
 10
3.01286
 20
9.00315
 30
0.0
 40
0
 41
0
  0
VERTEX
  8
0
 10
3.01286
 20
9.00456
 30
0.0
 40
0
 41
0
  0
SEQEND
 8
0
  0
POLYLINE
  8
0
 62
     0
 66
     1
 10
0
 20
0
 30
0.0
 70
     1
 40
0
 41
0
  0
VERTEX
  8
0
 10
3.14236
 20
8.91732
 30
0.0
 40
0
 41
0
  0
VERTEX
  8
0
 10
3.14236
 20
8.91683
 30
0.0
 40
0
 41
0
  0
VERTEX
  8
0
 10
3.14144
 20
8.91547
 30
0.0
 40
0
 41
0
  0
VERTEX
  8
0
 10
3.14128
 20
8.91536
 30
0.0
 40
0
 41
0
  0
VERTEX
  8
0
 10
3.14046
 20
8.91531
 30
0.0
 40
0
 41
0
  0
VERTEX
  8
0
 10
3.13857
 20
8.91461
 30
0.0
 40
0
 41
0
  0
VERTEX
  8
0
 10
3.13824
 20
8.9145
 30
0.0
 40
0
 41
0
  0
VERTEX
  8
0
 10
3.1371
 20
8.91444
 30
0.0
 40
0
 41
0
  0
VERTEX
  8
0
 10
3.13351
 20
8.91428
 30
0.0
 40
0
 41
0
  0
VERTEX
  8
0
 10
3.13238
 20
8.91428
 30
0.0
 40
0
 41
0
  0
VERTEX
  8
0
 10
3.13097
 20
8.91428
 30
0.0
 40
0
 41
0
  0
VERTEX
  8
0
 10
3.12706
 20
8.9145
 30
0.0
 40
0
 41
0
  0
VERTEX
  8
0
 10
3.12674
 20
8.9145
 30
0.0
 40
0
 41
0
  0
VERTEX
  8
0
 10
3.12592
 20
8.91456
 30
0.0
 40
0
 41
0
  0
VERTEX
  8
0
 10
3.12364
 20
8.91531
 30
0.0
 40
0
 41
0
  0
VERTEX
  8
0
 10
3.12349
 20
8.91536
 30
0.0
 40
0
 41
0
  0
VERTEX
  8
0
 10
3.12326
 20
8.91536
 30
0.0
 40
0
 41
0
  0
VERTEX
  8
0
 10
3.12261
 20
8.91683
 30
0.0
 40
0
 41
0
  0
VERTEX
  8
0
 10
3.12261
 20
8.91732
 30
0.0
 40
0
 41
0
  0
VERTEX
  8
0
 10
3.12261
 20
8.92578
 30
0.0
 40
0
 41
0
  0
VERTEX
  8
0
 10
3.12121
 20
8.92399
 30
0.0
 40
0
 41
0
  0
VERTEX
  8
0
 10
3.11632
 20
8.91906
 30
0.0
 40
0
 41
0
  0
VERTEX
  8
0
 10
3.11253
 20
8.91738
 30
0.0
 40
0
 41
0
  0
VERTEX
  8
0
 10
3.11154
 20
8.91689
 30
0.0
 40
0
 41
0
  0
VERTEX
  8
0
 10
3.10969
 20
8.91629
 30
0.0
 40
0
 41
0
  0
VERTEX
  8
0
 10
3.10406
 20
8.91461
 30
0.0
 40
0
 41
0
  0
VERTEX
  8
0
 10
3.10021
 20
8.91428
 30
0.0
 40
0
 41
0
  0
VERTEX
  8
0
 10
3.09896
 20
8.91428
 30
0.0
 40
0
 41
0
  0
VERTEX
  8
0
 10
3.09625
 20
8.91428
 30
0.0
 40
0
 41
0
  0
VERTEX
  8
0
 10
3.08886
 20
8.91575
 30
0.0
 40
0
 41
0
  0
VERTEX
  8
0
 10
3.08811
 20
8.91601
 30
0.0
 40
0
 41
0
  0
VERTEX
  8
0
 10
3.08718
 20
8.91624
 30
0.0
 40
0
 41
0
  0
VERTEX
  8
0
 10
3.0804
 20
8.92068
 30
0.0
 40
0
 41
0
  0
VERTEX
  8
0
 10
3.07986
 20
8.92122
 30
0.0
 40
0
 41
0
  0
VERTEX
  8
0
 10
3.07889
 20
8.92122
 30
0.0
 40
0
 41
0
  0
VERTEX
  8
0
 10
3.07601
 20
8.92415
 30
0.0
 40
0
 41
0
  0
VERTEX
  8
0
 10
3.07497
 20
8.92871
 30
0.0
 40
0
 41
0
  0
VERTEX
  8
0
 10
3.07465
 20
8.92947
 30
0.0
 40
0
 41
0
  0
VERTEX
  8
0
 10
3.07422
 20
8.93024
 30
0.0
 40
0
 41
0
  0
VERTEX
  8
0
 10
3.07292
 20
8.93815
 30
0.0
 40
0
 41
0
  0
VERTEX
  8
0
 10
3.07292
 20
8.94075
 30
0.0
 40
0
 41
0
  0
VERTEX
  8
0
 10
3.07292
 20
8.94396
 30
0.0
 40
0
 41
0
  0
VERTEX
  8
0
 10
3.07488
 20
8.95269
 30
0.0
 40
0
 41
0
  0
VERTEX
  8
0
 10
3.07531
 20
8.95356
 30
0.0
 40
0
 41
0
  0
VERTEX
  8
0
 10
3.07553
 20
8.9535
 30
0.0
 40
0
 41
0
  0
VERTEX
  8
0
 10
3.07813
 20
8.95708
 30
0.0
 40
0
 41
0
  0
VERTEX
  8
0
 10
3.08188
 20
8.96192
 30
0.0
 40
0
 41
0
  0
VERTEX
  8
0
 10
3.08268
 20
8.96246
 30
0.0
 40
0
 41
0
  0
VERTEX
  8
0
 10
3.08263
 20
8.96257
 30
0.0
 40
0
 41
0
  0
VERTEX
  8
0
 10
3.08669
 20
8.96485
 30
0.0
 40
0
 41
0
  0
VERTEX
  8
0
 10
3.09304
 20
8.96761
 30
0.0
 40
0
 41
0
  0
VERTEX
  8
0
 10
3.09418
 20
8.96789
 30
0.0
 40
0
 41
0
  0
VERTEX
  8
0
 10
3.09467
 20
8.96724
 30
0.0
 40
0
 41
0
  0
VERTEX
  8
0
 10
3.10042
 20
8.96789
 30
0.0
 40
0
 41
0
  0
VERTEX
  8
0
 10
3.10726
 20
8.96983
 30
0.0
 40
0
 41
0
  0
VERTEX
  8
0
 10
3.1096
 20
8.96983
 30
0.0
 40
0
 41
0
  0
VERTEX
  8
0
 10
3.11957
 20
8.96983
 30
0.0
 40
0
 41
0
  0
VERTEX
  8
0
 10
3.11957
 20
8.97678
 30
0.0
 40
0
 41
0
  0
VERTEX
  8
0
 10
3.11914
 20
8.97706
 30
0.0
 40
0
 41
0
  0
VERTEX
  8
0
 10
3.11865
 20
8.98503
 30
0.0
 40
0
 41
0
  0
VERTEX
  8
0
 10
3.11849
 20
8.98568
 30
0.0
 40
0
 41
0
  0
VERTEX
  8
0
 10
3.118
 20
8.98622
 30
0.0
 40
0
 41
0
  0
VERTEX
  8
0
 10
3.11578
 20
8.99197
 30
0.0
 40
0
 41
0
  0
VERTEX
  8
0
 10
3.11546
 20
8.9924
 30
0.0
 40
0
 41
0
  0
VERTEX
  8
0
 10
3.11501
 20
8.99214
 30
0.0
 40
0
 41
0
  0
VERTEX
  8
0
 10
3.11035
 20
8.9961
 30
0.0
 40
0
 41
0
  0
VERTEX
  8
0
 10
3.10981
 20
8.99631
 30
0.0
 40
0
 41
0
  0
VERTEX
  8
0
 10
3.10889
 20
8.99571
 30
0.0
 40
0
 41
0
  0
VERTEX
  8
0
 10
3.10493
 20
8.99571
 30
0.0
 40
0
 41
0
  0
VERTEX
  8
0
 10
3.10238
 20
8.99761
 30
0.0
 40
0
 41
0
  0
VERTEX
  8
0
 10
3.10157
 20
8.99761
 30
0.0
 40
0
 41
0
  0
VERTEX
  8
0
 10
3.09912
 20
8.99761
 30
0.0
 40
0
 41
0
  0
VERTEX
  8
0
 10
3.0925
 20
8.99582
 30
0.0
 40
0
 41
0
  0
VERTEX
  8
0
 10
3.09179
 20
8.99544
 30
0.0
 40
0
 41
0
  0
VERTEX
  8
0
 10
3.09088
 20
8.99436
 30
0.0
 40
0
 41
0
  0
VERTEX
  8
0
 10
3.08724
 20
8.99169
 30
0.0
 40
0
 41
0
  0
VERTEX
  8
0
 10
3.08496
 20
8.9911
 30
0.0
 40
0
 41
0
  0
VERTEX
  8
0
 10
3.08442
 20
8.99067
 30
0.0
 40
0
 41
0
  0
VERTEX
  8
0
 10
3.08322
 20
8.9899
 30
0.0
 40
0
 41
0
  0
VERTEX
  8
0
 10
3.07997
 20
8.98731
 30
0.0
 40
0
 41
0
  0
VERTEX
  8
0
 10
3.07926
 20
8.98622
 30
0.0
 40
0
 41
0
  0
VERTEX
  8
0
 10
3.079
 20
8.98589
 30
0.0
 40
0
 41
0
  0
VERTEX
  8
0
 10
3.07813
 20
8.9854
 30
0.0
 40
0
 41
0
  0
VERTEX
  8
0
 10
3.07633
 20
8.98372
 30
0.0
 40
0
 41
0
  0
VERTEX
  8
0
 10
3.07574
 20
8.98372
 30
0.0
 40
0
 41
0
  0
VERTEX
  8
0
 10
3.07542
 20
8.98372
 30
0.0
 40
0
 41
0
  0
VERTEX
  8
0
 10
3.07454
 20
8.9841
 30
0.0
 40
0
 41
0
  0
VERTEX
  8
0
 10
3.07443
 20
8.98415
 30
0.0
 40
0
 41
0
  0
VERTEX
  8
0
 10
3.07422
 20
8.98421
 30
0.0
 40
0
 41
0
  0
VERTEX
  8
0
 10
3.07362
 20
8.98514
 30
0.0
 40
0
 41
0
  0
VERTEX
  8
0
 10
3.07357
 20
8.98525
 30
0.0
 40
0
 41
0
  0
VERTEX
  8
0
 10
3.07346
 20
8.98529
 30
0.0
 40
0
 41
0
  0
VERTEX
  8
0
 10
3.07314
 20
8.98703
 30
0.0
 40
0
 41
0
  0
VERTEX
  8
0
 10
3.07314
 20
8.98719
 30
0.0
 40
0
 41
0
  0
VERTEX
  8
0
 10
3.07314
 20
8.98719
 30
0.0
 40
0
 41
0
  0
VERTEX
  8
0
 10
3.07292
 20
8.98915
 30
0.0
 40
0
 41
0
  0
VERTEX
  8
0
 10
3.07292
 20
8.98981
 30
0.0
 40
0
 41
0
  0
VERTEX
  8
0
 10
3.07292
 20
8.98981
 30
0.0
 40
0
 41
0
  0
VERTEX
  8
0
 10
3.07308
 20
8.99349
 30
0.0
 40
0
 41
0
  0
VERTEX
  8
0
 10
3.07314
 20
8.99371
 30
0.0
 40
0
 41
0
  0
VERTEX
  8
0
 10
3.07314
 20
8.99371
 30
0.0
 40
0
 41
0
  0
VERTEX
  8
0
 10
3.07465
 20
8.9961
 30
0.0
 40
0
 41
0
  0
VERTEX
  8
0
 10
3.07488
 20
8.99631
 30
0.0
 40
0
 41
0
  0
VERTEX
  8
0
 10
3.07488
 20
8.99631
 30
0.0
 40
0
 41
0
  0
VERTEX
  8
0
 10
3.07656
 20
8.99642
 30
0.0
 40
0
 41
0
  0
VERTEX
  8
0
 10
3.0791
 20
9
 30
0.0
 40
0
 41
0
  0
VERTEX
  8
0
 10
3.07964
 20
9.00043
 30
0.0
 40
0
 41
0
  0
VERTEX
  8
0
 10
3.07958
 20
9.00071
 30
0.0
 40
0
 41
0
  0
VERTEX
  8
0
 10
3.08649
 20
9.00549
 30
0.0
 40
0
 41
0
  0
VERTEX
  8
0
 10
3.08724
 20
9.00586
 30
0.0
 40
0
 41
0
  0
VERTEX
  8
0
 10
3.08789
 20
9.00558
 30
0.0
 40
0
 41
0
  0
VERTEX
  8
0
 10
3.09571
 20
9.00956
 30
0.0
 40
0
 41
0
  0
VERTEX
  8
0
 10
3.09657
 20
9.00976
 30
0.0
 40
0
 41
0
  0
VERTEX
  8
0
 10
3.09657
 20
9.00965
 30
0.0
 40
0
 41
0
  0
VERTEX
  8
0
 10
3.10053
 20
9.00956
 30
0.0
 40
0
 41
0
  0
VERTEX
  8
0
 10
3.10536
 20
9.0115
 30
0.0
 40
0
 41
0
  0
VERTEX
  8
0
 10
3.10699
 20
9.0115
 30
0.0
 40
0
 41
0
  0
VERTEX
  8
0
 10
3.11106
 20
9.0115
 30
0.0
 40
0
 41
0
  0
VERTEX
  8
0
 10
3.12213
 20
9.00971
 30
0.0
 40
0
 41
0
  0
VERTEX
  8
0
 10
3.12326
 20
9.00933
 30
0.0
 40
0
 41
0
  0
VERTEX
  8
0
 10
3.12364
 20
9.00803
 30
0.0
 40
0
 41
0
  0
VERTEX
  8
0
 10
3.12836
 20
9.00515
 30
0.0
 40
0
 41
0
  0
VERTEX
  8
0
 10
3.13363
 20
9.00358
 30
0.0
 40
0
 41
0
  0
VERTEX
  8
0
 10
3.13433
 20
9.00282
 30
0.0
 40
0
 41
0
  0
VERTEX
  8
0
 10
3.13456
 20
9.00174
 30
0.0
 40
0
 41
0
  0
VERTEX
  8
0
 10
3.14008
 20
8.99349
 30
0.0
 40
0
 41
0
  0
VERTEX
  8
0
 10
3.1404
 20
8.9924
 30
0.0
 40
0
 41
0
  0
VERTEX
  8
0
 10
3.13976
 20
8.99072
 30
0.0
 40
0
 41
0
  0
VERTEX
  8
0
 10
3.14035
 20
8.98449
 30
0.0
 40
0
 41
0
  0
VERTEX
  8
0
 10
3.14236
 20
8.97939
 30
0.0
 40
0
 41
0
  0
VERTEX
  8
0
 10
3.14236
 20
8.97765
 30
0.0
 40
0
 41
0
  0
VERTEX
  8
0
 10
3.14236
 20
8.91732
 30
0.0
 40
0
 41
0
  0
SEQEND
 8
0
  0
POLYLINE
  8
0
 62
     0
 66
     1
 10
0
 20
0
 30
0.0
 70
     1
 40
0
 41
0
  0
VERTEX
  8
0
 10
3.11957
 20
8.95594
 30
0.0
 40
0
 41
0
  0
VERTEX
  8
0
 10
3.11133
 20
8.95594
 30
0.0
 40
0
 41
0
  0
VERTEX
  8
0
 10
3.1096
 20
8.95594
 30
0.0
 40
0
 41
0
  0
VERTEX
  8
0
 10
3.10487
 20
8.95508
 30
0.0
 40
0
 41
0
  0
VERTEX
  8
0
 10
3.10439
 20
8.95486
 30
0.0
 40
0
 41
0
  0
VERTEX
  8
0
 10
3.10385
 20
8.95404
 30
0.0
 40
0
 41
0
  0
VERTEX
  8
0
 10
3.10129
 20
8.95215
 30
0.0
 40
0
 41
0
  0
VERTEX
  8
0
 10
3.09983
 20
8.95226
 30
0.0
 40
0
 41
0
  0
VERTEX
  8
0
 10
3.09961
 20
8.95204
 30
0.0
 40
0
 41
0
  0
VERTEX
  8
0
 10
3.09868
 20
8.95133
 30
0.0
 40
0
 41
0
  0
VERTEX
  8
0
 10
3.09631
 20
8.94863
 30
0.0
 40
0
 41
0
  0
VERTEX
  8
0
 10
3.09685
 20
8.94754
 30
0.0
 40
0
 41
0
  0
VERTEX
  8
0
 10
3.09679
 20
8.94726
 30
0.0
 40
0
 41
0
  0
VERTEX
  8
0
 10
3.09608
 20
8.94667
 30
0.0
 40
0
 41
0
  0
VERTEX
  8
0
 10
3.09489
 20
8.94379
 30
0.0
 40
0
 41
0
  0
VERTEX
  8
0
 10
3.09592
 20
8.94185
 30
0.0
 40
0
 41
0
  0
VERTEX
  8
0
 10
3.09592
 20
8.94119
 30
0.0
 40
0
 41
0
  0
VERTEX
  8
0
 10
3.09532
 20
8.93967
 30
0.0
 40
0
 41
0
  0
VERTEX
  8
0
 10
3.09543
 20
8.93425
 30
0.0
 40
0
 41
0
  0
VERTEX
  8
0
 10
3.0981
 20
8.93229
 30
0.0
 40
0
 41
0
  0
VERTEX
  8
0
 10
3.09853
 20
8.93164
 30
0.0
 40
0
 41
0
  0
VERTEX
  8
0
 10
3.09831
 20
8.93132
 30
0.0
 40
0
 41
0
  0
VERTEX
  8
0
 10
3.10015
 20
8.9286
 30
0.0
 40
0
 41
0
  0
VERTEX
  8
0
 10
3.10428
 20
8.92817
 30
0.0
 40
0
 41
0
  0
VERTEX
  8
0
 10
3.10568
 20
8.92817
 30
0.0
 40
0
 41
0
  0
VERTEX
  8
0
 10
3.10747
 20
8.92817
 30
0.0
 40
0
 41
0
  0
VERTEX
  8
0
 10
3.11231
 20
8.93056
 30
0.0
 40
0
 41
0
  0
VERTEX
  8
0
 10
3.11285
 20
8.93099
 30
0.0
 40
0
 41
0
  0
VERTEX
  8
0
 10
3.11285
 20
8.93099
 30
0.0
 40
0
 41
0
  0
VERTEX
  8
0
 10
3.11458
 20
8.93425
 30
0.0
 40
0
 41
0
  0
VERTEX
  8
0
 10
3.11897
 20
8.93869
 30
0.0
 40
0
 41
0
  0
VERTEX
  8
0
 10
3.11957
 20
8.93967
 30
0.0
 40
0
 41
0
  0
VERTEX
  8
0
 10
3.11957
 20
8.95594
 30
0.0
 40
0
 41
0
  0
SEQEND
 8
0
  0
POLYLINE
  8
0
 62
     0
 66
     1
 10
0
 20
0
 30
0.0
 70
     1
 40
0
 41
0
  0
VERTEX
  8
0
 10
3.24963
 20
8.91732
 30
0.0
 40
0
 41
0
  0
VERTEX
  8
0
 10
3.24963
 20
8.91699
 30
0.0
 40
0
 41
0
  0
VERTEX
  8
0
 10
3.24924
 20
8.91613
 30
0.0
 40
0
 41
0
  0
VERTEX
  8
0
 10
3.24918
 20
8.91601
 30
0.0
 40
0
 41
0
  0
VERTEX
  8
0
 10
3.24858
 20
8.9159
 30
0.0
 40
0
 41
0
  0
VERTEX
  8
0
 10
3.24685
 20
8.91521
 30
0.0
 40
0
 41
0
  0
VERTEX
  8
0
 10
3.24744
 20
8.91493
 30
0.0
 40
0
 41
0
  0
VERTEX
  8
0
 10
3.24744
 20
8.91493
 30
0.0
 40
0
 41
0
  0
VERTEX
  8
0
 10
3.24669
 20
8.91487
 30
0.0
 40
0
 41
0
  0
VERTEX
  8
0
 10
3.24474
 20
8.91456
 30
0.0
 40
0
 41
0
  0
VERTEX
  8
0
 10
3.24442
 20
8.9145
 30
0.0
 40
0
 41
0
  0
VERTEX
  8
0
 10
3.24333
 20
8.91444
 30
0.0
 40
0
 41
0
  0
VERTEX
  8
0
 10
3.24056
 20
8.91428
 30
0.0
 40
0
 41
0
  0
VERTEX
  8
0
 10
3.23964
 20
8.91428
 30
0.0
 40
0
 41
0
  0
VERTEX
  8
0
 10
3.23844
 20
8.91428
 30
0.0
 40
0
 41
0
  0
VERTEX
  8
0
 10
3.23519
 20
8.9145
 30
0.0
 40
0
 41
0
  0
VERTEX
  8
0
 10
3.23486
 20
8.9145
 30
0.0
 40
0
 41
0
  0
VERTEX
  8
0
 10
3.23406
 20
8.9145
 30
0.0
 40
0
 41
0
  0
VERTEX
  8
0
 10
3.23182
 20
8.91493
 30
0.0
 40
0
 41
0
  0
VERTEX
  8
0
 10
3.23161
 20
8.91493
 30
0.0
 40
0
 41
0
  0
VERTEX
  8
0
 10
3.23118
 20
8.91493
 30
0.0
 40
0
 41
0
  0
VERTEX
  8
0
 10
3.22999
 20
8.9159
 30
0.0
 40
0
 41
0
  0
VERTEX
  8
0
 10
3.22987
 20
8.91601
 30
0.0
 40
0
 41
0
  0
VERTEX
  8
0
 10
3.22976
 20
8.91601
 30
0.0
 40
0
 41
0
  0
VERTEX
  8
0
 10
3.22944
 20
8.91715
 30
0.0
 40
0
 41
0
  0
VERTEX
  8
0
 10
3.22944
 20
8.91754
 30
0.0
 40
0
 41
0
  0
VERTEX
  8
0
 10
3.22944
 20
8.93033
 30
0.0
 40
0
 41
0
  0
VERTEX
  8
0
 10
3.22771
 20
8.92893
 30
0.0
 40
0
 41
0
  0
VERTEX
  8
0
 10
3.21696
 20
8.91917
 30
0.0
 40
0
 41
0
  0
VERTEX
  8
0
 10
3.21576
 20
8.9184
 30
0.0
 40
0
 41
0
  0
VERTEX
  8
0
 10
3.21392
 20
8.91738
 30
0.0
 40
0
 41
0
  0
VERTEX
  8
0
 10
3.20356
 20
8.91428
 30
0.0
 40
0
 41
0
  0
VERTEX
  8
0
 10
3.20014
 20
8.91428
 30
0.0
 40
0
 41
0
  0
VERTEX
  8
0
 10
3.19624
 20
8.91428
 30
0.0
 40
0
 41
0
  0
VERTEX
  8
0
 10
3.1856
 20
8.91738
 30
0.0
 40
0
 41
0
  0
VERTEX
  8
0
 10
3.18451
 20
8.91797
 30
0.0
 40
0
 41
0
  0
VERTEX
  8
0
 10
3.18306
 20
8.91835
 30
0.0
 40
0
 41
0
  0
VERTEX
  8
0
 10
3.17453
 20
8.92714
 30
0.0
 40
0
 41
0
  0
VERTEX
  8
0
 10
3.17389
 20
8.92817
 30
0.0
 40
0
 41
0
  0
VERTEX
  8
0
 10
3.17258
 20
8.92925
 30
0.0
 40
0
 41
0
  0
VERTEX
  8
0
 10
3.16835
 20
8.94194
 30
0.0
 40
0
 41
0
  0
VERTEX
  8
0
 10
3.16803
 20
8.94336
 30
0.0
 40
0
 41
0
  0
VERTEX
  8
0
 10
3.16758
 20
8.94472
 30
0.0
 40
0
 41
0
  0
VERTEX
  8
0
 10
3.16629
 20
8.95757
 30
0.0
 40
0
 41
0
  0
VERTEX
  8
0
 10
3.16629
 20
8.96181
 30
0.0
 40
0
 41
0
  0
VERTEX
  8
0
 10
3.16629
 20
8.9669
 30
0.0
 40
0
 41
0
  0
VERTEX
  8
0
 10
3.16808
 20
8.98068
 30
0.0
 40
0
 41
0
  0
VERTEX
  8
0
 10
3.16846
 20
8.98221
 30
0.0
 40
0
 41
0
  0
VERTEX
  8
0
 10
3.16868
 20
8.98275
 30
0.0
 40
0
 41
0
  0
VERTEX
  8
0
 10
3.17101
 20
8.98931
 30
0.0
 40
0
 41
0
  0
VERTEX
  8
0
 10
3.17443
 20
8.99696
 30
0.0
 40
0
 41
0
  0
VERTEX
  8
0
 10
3.17518
 20
8.99804
 30
0.0
 40
0
 41
0
  0
VERTEX
  8
0
 10
3.17518
 20
8.99914
 30
0.0
 40
0
 41
0
  0
VERTEX
  8
0
 10
3.18517
 20
9.00749
 30
0.0
 40
0
 41
0
  0
VERTEX
  8
0
 10
3.18625
 20
9.00803
 30
0.0
 40
0
 41
0
  0
VERTEX
  8
0
 10
3.18685
 20
9.00776
 30
0.0
 40
0
 41
0
  0
VERTEX
  8
0
 10
3.19271
 20
9.00933
 30
0.0
 40
0
 41
0
  0
VERTEX
  8
0
 10
3.19954
 20
9.0115
 30
0.0
 40
0
 41
0
  0
VERTEX
  8
0
 10
3.20188
 20
9.0115
 30
0.0
 40
0
 41
0
  0
VERTEX
  8
0
 10
3.20514
 20
9.0115
 30
0.0
 40
0
 41
0
  0
VERTEX
  8
0
 10
3.21392
 20
9.00862
 30
0.0
 40
0
 41
0
  0
VERTEX
  8
0
 10
3.2149
 20
9.00803
 30
0.0
 40
0
 41
0
  0
VERTEX
  8
0
 10
3.21533
 20
9.00662
 30
0.0
 40
0
 41
0
  0
VERTEX
  8
0
 10
3.22006
 20
9.00261
 30
0.0
 40
0
 41
0
  0
VERTEX
  8
0
 10
3.22586
 20
8.99918
 30
0.0
 40
0
 41
0
  0
VERTEX
  8
0
 10
3.22683
 20
8.99804
 30
0.0
 40
0
 41
0
  0
VERTEX
  8
0
 10
3.22683
 20
9.04992
 30
0.0
 40
0
 41
0
  0
VERTEX
  8
0
 10
3.22672
 20
9.04981
 30
0.0
 40
0
 41
0
  0
VERTEX
  8
0
 10
3.22629
 20
9.04943
 30
0.0
 40
0
 41
0
  0
VERTEX
  8
0
 10
3.22715
 20
9.05132
 30
0.0
 40
0
 41
0
  0
VERTEX
  8
0
 10
3.22726
 20
9.05143
 30
0.0
 40
0
 41
0
  0
VERTEX
  8
0
 10
3.22715
 20
9.05126
 30
0.0
 40
0
 41
0
  0
VERTEX
  8
0
 10
3.22721
 20
9.05046
 30
0.0
 40
0
 41
0
  0
VERTEX
  8
0
 10
3.22879
 20
9.05231
 30
0.0
 40
0
 41
0
  0
VERTEX
  8
0
 10
3.229
 20
9.05231
 30
0.0
 40
0
 41
0
  0
VERTEX
  8
0
 10
3.22889
 20
9.05208
 30
0.0
 40
0
 41
0
  0
VERTEX
  8
0
 10
3.22976
 20
9.05106
 30
0.0
 40
0
 41
0
  0
VERTEX
  8
0
 10
3.23232
 20
9.05296
 30
0.0
 40
0
 41
0
  0
VERTEX
  8
0
 10
3.23269
 20
9.05296
 30
0.0
 40
0
 41
0
  0
VERTEX
  8
0
 10
3.23258
 20
9.05279
 30
0.0
 40
0
 41
0
  0
VERTEX
  8
0
 10
3.23378
 20
9.05143
 30
0.0
 40
0
 41
0
  0
VERTEX
  8
0
 10
3.23703
 20
9.05317
 30
0.0
 40
0
 41
0
  0
VERTEX
  8
0
 10
3.23813
 20
9.05317
 30
0.0
 40
0
 41
0
  0
VERTEX
  8
0
 10
3.23953
 20
9.05317
 30
0.0
 40
0
 41
0
  0
VERTEX
  8
0
 10
3.24337
 20
9.053
 30
0.0
 40
0
 41
0
  0
VERTEX
  8
0
 10
3.24376
 20
9.05296
 30
0.0
 40
0
 41
0
  0
VERTEX
  8
0
 10
3.24365
 20
9.05257
 30
0.0
 40
0
 41
0
  0
VERTEX
  8
0
 10
3.24463
 20
9.051
 30
0.0
 40
0
 41
0
  0
VERTEX
  8
0
 10
3.24681
 20
9.0524
 30
0.0
 40
0
 41
0
  0
VERTEX
  8
0
 10
3.24701
 20
9.05231
 30
0.0
 40
0
 41
0
  0
VERTEX
  8
0
 10
3.24675
 20
9.05192
 30
0.0
 40
0
 41
0
  0
VERTEX
  8
0
 10
3.24669
 20
9.05035
 30
0.0
 40
0
 41
0
  0
VERTEX
  8
0
 10
3.24886
 20
9.05154
 30
0.0
 40
0
 41
0
  0
VERTEX
  8
0
 10
3.24897
 20
9.05143
 30
0.0
 40
0
 41
0
  0
VERTEX
  8
0
 10
3.24854
 20
9.051
 30
0.0
 40
0
 41
0
  0
VERTEX
  8
0
 10
3.24778
 20
9.04921
 30
0.0
 40
0
 41
0
  0
VERTEX
  8
0
 10
3.24963
 20
9.04992
 30
0.0
 40
0
 41
0
  0
VERTEX
  8
0
 10
3.24963
 20
9.04992
 30
0.0
 40
0
 41
0
  0
VERTEX
  8
0
 10
3.24963
 20
8.91732
 30
0.0
 40
0
 41
0
  0
SEQEND
 8
0
  0
POLYLINE
  8
0
 62
     0
 66
     1
 10
0
 20
0
 30
0.0
 70
     1
 40
0
 41
0
  0
VERTEX
  8
0
 10
3.22683
 20
8.9809
 30
0.0
 40
0
 41
0
  0
VERTEX
  8
0
 10
3.22553
 20
8.98139
 30
0.0
 40
0
 41
0
  0
VERTEX
  8
0
 10
3.22108
 20
8.98676
 30
0.0
 40
0
 41
0
  0
VERTEX
  8
0
 10
3.21761
 20
8.99262
 30
0.0
 40
0
 41
0
  0
VERTEX
  8
0
 10
3.21685
 20
8.99328
 30
0.0
 40
0
 41
0
  0
VERTEX
  8
0
 10
3.21539
 20
8.99322
 30
0.0
 40
0
 41
0
  0
VERTEX
  8
0
 10
3.21083
 20
8.99533
 30
0.0
 40
0
 41
0
  0
VERTEX
  8
0
 10
3.20785
 20
8.99761
 30
0.0
 40
0
 41
0
  0
VERTEX
  8
0
 10
3.20688
 20
8.99761
 30
0.0
 40
0
 41
0
  0
VERTEX
  8
0
 10
3.20535
 20
8.99761
 30
0.0
 40
0
 41
0
  0
VERTEX
  8
0
 10
3.20079
 20
8.99685
 30
0.0
 40
0
 41
0
  0
VERTEX
  8
0
 10
3.19917
 20
8.99511
 30
0.0
 40
0
 41
0
  0
VERTEX
  8
0
 10
3.19862
 20
8.99457
 30
0.0
 40
0
 41
0
  0
VERTEX
  8
0
 10
3.19781
 20
8.99338
 30
0.0
 40
0
 41
0
  0
VERTEX
  8
0
 10
3.19504
 20
8.98986
 30
0.0
 40
0
 41
0
  0
VERTEX
  8
0
 10
3.19353
 20
8.98757
 30
0.0
 40
0
 41
0
  0
VERTEX
  8
0
 10
3.19319
 20
8.98676
 30
0.0
 40
0
 41
0
  0
VERTEX
  8
0
 10
3.192
 20
8.98589
 30
0.0
 40
0
 41
0
  0
VERTEX
  8
0
 10
3.18978
 20
8.98128
 30
0.0
 40
0
 41
0
  0
VERTEX
  8
0
 10
3.19032
 20
8.97694
 30
0.0
 40
0
 41
0
  0
VERTEX
  8
0
 10
3.19015
 20
8.97592
 30
0.0
 40
0
 41
0
  0
VERTEX
  8
0
 10
3.18924
 20
8.9745
 30
0.0
 40
0
 41
0
  0
VERTEX
  8
0
 10
3.18826
 20
8.96903
 30
0.0
 40
0
 41
0
  0
VERTEX
  8
0
 10
3.18929
 20
8.96496
 30
0.0
 40
0
 41
0
  0
VERTEX
  8
0
 10
3.18929
 20
8.96354
 30
0.0
 40
0
 41
0
  0
VERTEX
  8
0
 10
3.18853
 20
8.96186
 30
0.0
 40
0
 41
0
  0
VERTEX
  8
0
 10
3.18832
 20
8.95594
 30
0.0
 40
0
 41
0
  0
VERTEX
  8
0
 10
3.18983
 20
8.95139
 30
0.0
 40
0
 41
0
  0
VERTEX
  8
0
 10
3.18994
 20
8.95031
 30
0.0
 40
0
 41
0
  0
VERTEX
  8
0
 10
3.18935
 20
8.94879
 30
0.0
 40
0
 41
0
  0
VERTEX
  8
0
 10
3.18983
 20
8.94331
 30
0.0
 40
0
 41
0
  0
VERTEX
  8
0
 10
3.19243
 20
8.93989
 30
0.0
 40
0
 41
0
  0
VERTEX
  8
0
 10
3.19276
 20
8.93901
 30
0.0
 40
0
 41
0
  0
VERTEX
  8
0
 10
3.19228
 20
8.93787
 30
0.0
 40
0
 41
0
  0
VERTEX
  8
0
 10
3.19358
 20
8.93332
 30
0.0
 40
0
 41
0
  0
VERTEX
  8
0
 10
3.19764
 20
8.93175
 30
0.0
 40
0
 41
0
  0
VERTEX
  8
0
 10
3.19819
 20
8.93121
 30
0.0
 40
0
 41
0
  0
VERTEX
  8
0
 10
3.19835
 20
8.93044
 30
0.0
 40
0
 41
0
  0
VERTEX
  8
0
 10
3.20437
 20
8.92817
 30
0.0
 40
0
 41
0
  0
VERTEX
  8
0
 10
3.20643
 20
8.92817
 30
0.0
 40
0
 41
0
  0
VERTEX
  8
0
 10
3.20643
 20
8.92817
 30
0.0
 40
0
 41
0
  0
VERTEX
  8
0
 10
3.21083
 20
8.92893
 30
0.0
 40
0
 41
0
  0
VERTEX
  8
0
 10
3.21121
 20
8.92904
 30
0.0
 40
0
 41
0
  0
VERTEX
  8
0
 10
3.21132
 20
8.92914
 30
0.0
 40
0
 41
0
  0
VERTEX
  8
0
 10
3.21556
 20
8.93153
 30
0.0
 40
0
 41
0
  0
VERTEX
  8
0
 10
3.21599
 20
8.93186
 30
0.0
 40
0
 41
0
  0
VERTEX
  8
0
 10
3.21599
 20
8.93186
 30
0.0
 40
0
 41
0
  0
VERTEX
  8
0
 10
3.22076
 20
8.93674
 30
0.0
 40
0
 41
0
  0
VERTEX
  8
0
 10
3.22119
 20
8.93728
 30
0.0
 40
0
 41
0
  0
VERTEX
  8
0
 10
3.22119
 20
8.93728
 30
0.0
 40
0
 41
0
  0
VERTEX
  8
0
 10
3.22222
 20
8.93994
 30
0.0
 40
0
 41
0
  0
VERTEX
  8
0
 10
3.22629
 20
8.94476
 30
0.0
 40
0
 41
0
  0
VERTEX
  8
0
 10
3.22683
 20
8.94553
 30
0.0
 40
0
 41
0
  0
VERTEX
  8
0
 10
3.22683
 20
8.9809
 30
0.0
 40
0
 41
0
  0
SEQEND
 8
0
  0
POLYLINE
  8
0
 62
     0
 66
     1
 10
0
 20
0
 30
0.0
 70
     1
 40
0
 41
0
  0
VERTEX
  8
0
 10
3.29139
 20
8.91732
 30
0.0
 40
0
 41
0
  0
VERTEX
  8
0
 10
3.29113
 20
8.91721
 30
0.0
 40
0
 41
0
  0
VERTEX
  8
0
 10
3.29085
 20
8.91613
 30
0.0
 40
0
 41
0
  0
VERTEX
  8
0
 10
3.29075
 20
8.91601
 30
0.0
 40
0
 41
0
  0
VERTEX
  8
0
 10
3.29025
 20
8.9159
 30
0.0
 40
0
 41
0
  0
VERTEX
  8
0
 10
3.28922
 20
8.91525
 30
0.0
 40
0
 41
0
  0
VERTEX
  8
0
 10
3.28901
 20
8.91515
 30
0.0
 40
0
 41
0
  0
VERTEX
  8
0
 10
3.28825
 20
8.91504
 30
0.0
 40
0
 41
0
  0
VERTEX
  8
0
 10
3.28586
 20
8.91456
 30
0.0
 40
0
 41
0
  0
VERTEX
  8
0
 10
3.28554
 20
8.9145
 30
0.0
 40
0
 41
0
  0
VERTEX
  8
0
 10
3.28489
 20
8.91444
 30
0.0
 40
0
 41
0
  0
VERTEX
  8
0
 10
3.28114
 20
8.91428
 30
0.0
 40
0
 41
0
  0
VERTEX
  8
0
 10
3.27989
 20
8.91428
 30
0.0
 40
0
 41
0
  0
VERTEX
  8
0
 10
3.27854
 20
8.91428
 30
0.0
 40
0
 41
0
  0
VERTEX
  8
0
 10
3.27479
 20
8.9145
 30
0.0
 40
0
 41
0
  0
VERTEX
  8
0
 10
3.27447
 20
8.9145
 30
0.0
 40
0
 41
0
  0
VERTEX
  8
0
 10
3.2736
 20
8.91456
 30
0.0
 40
0
 41
0
  0
VERTEX
  8
0
 10
3.271
 20
8.9151
 30
0.0
 40
0
 41
0
  0
VERTEX
  8
0
 10
3.27078
 20
8.91515
 30
0.0
 40
0
 41
0
  0
VERTEX
  8
0
 10
3.27035
 20
8.91515
 30
0.0
 40
0
 41
0
  0
VERTEX
  8
0
 10
3.2691
 20
8.91596
 30
0.0
 40
0
 41
0
  0
VERTEX
  8
0
 10
3.26904
 20
8.91601
 30
0.0
 40
0
 41
0
  0
VERTEX
  8
0
 10
3.26904
 20
8.91601
 30
0.0
 40
0
 41
0
  0
VERTEX
  8
0
 10
3.26861
 20
8.91699
 30
0.0
 40
0
 41
0
  0
VERTEX
  8
0
 10
3.26861
 20
8.91732
 30
0.0
 40
0
 41
0
  0
VERTEX
  8
0
 10
3.26861
 20
9.00846
 30
0.0
 40
0
 41
0
  0
VERTEX
  8
0
 10
3.26861
 20
9.00846
 30
0.0
 40
0
 41
0
  0
VERTEX
  8
0
 10
3.26893
 20
9.0095
 30
0.0
 40
0
 41
0
  0
VERTEX
  8
0
 10
3.26904
 20
9.00956
 30
0.0
 40
0
 41
0
  0
VERTEX
  8
0
 10
3.26904
 20
9.00956
 30
0.0
 40
0
 41
0
  0
VERTEX
  8
0
 10
3.27056
 20
9.01058
 30
0.0
 40
0
 41
0
  0
VERTEX
  8
0
 10
3.27078
 20
9.01064
 30
0.0
 40
0
 41
0
  0
VERTEX
  8
0
 10
3.27078
 20
9.01031
 30
0.0
 40
0
 41
0
  0
VERTEX
  8
0
 10
3.27214
 20
9.00939
 30
0.0
 40
0
 41
0
  0
VERTEX
  8
0
 10
3.27408
 20
9.01129
 30
0.0
 40
0
 41
0
  0
VERTEX
  8
0
 10
3.27447
 20
9.01129
 30
0.0
 40
0
 41
0
  0
VERTEX
  8
0
 10
3.27442
 20
9.01101
 30
0.0
 40
0
 41
0
  0
VERTEX
  8
0
 10
3.27615
 20
9.00976
 30
0.0
 40
0
 41
0
  0
VERTEX
  8
0
 10
3.27892
 20
9.0115
 30
0.0
 40
0
 41
0
  0
VERTEX
  8
0
 10
3.27989
 20
9.0115
 30
0.0
 40
0
 41
0
  0
VERTEX
  8
0
 10
3.27989
 20
9.0115
 30
0.0
 40
0
 41
0
  0
VERTEX
  8
0
 10
3.28515
 20
9.01133
 30
0.0
 40
0
 41
0
  0
VERTEX
  8
0
 10
3.28554
 20
9.01129
 30
0.0
 40
0
 41
0
  0
VERTEX
  8
0
 10
3.28554
 20
9.01079
 30
0.0
 40
0
 41
0
  0
VERTEX
  8
0
 10
3.28711
 20
9.00933
 30
0.0
 40
0
 41
0
  0
VERTEX
  8
0
 10
3.28879
 20
9.01074
 30
0.0
 40
0
 41
0
  0
VERTEX
  8
0
 10
3.28901
 20
9.01064
 30
0.0
 40
0
 41
0
  0
VERTEX
  8
0
 10
3.28885
 20
9.01019
 30
0.0
 40
0
 41
0
  0
VERTEX
  8
0
 10
3.28922
 20
9.00851
 30
0.0
 40
0
 41
0
  0
VERTEX
  8
0
 10
3.29075
 20
9.0096
 30
0.0
 40
0
 41
0
  0
VERTEX
  8
0
 10
3.29075
 20
9.00956
 30
0.0
 40
0
 41
0
  0
VERTEX
  8
0
 10
3.29047
 20
9.00911
 30
0.0
 40
0
 41
0
  0
VERTEX
  8
0
 10
3.29015
 20
9.0076
 30
0.0
 40
0
 41
0
  0
VERTEX
  8
0
 10
3.29139
 20
9.00846
 30
0.0
 40
0
 41
0
  0
VERTEX
  8
0
 10
3.29139
 20
9.00846
 30
0.0
 40
0
 41
0
  0
VERTEX
  8
0
 10
3.29139
 20
8.91732
 30
0.0
 40
0
 41
0
  0
SEQEND
 8
0
  0
POLYLINE
  8
0
 62
     0
 66
     1
 10
0
 20
0
 30
0.0
 70
     1
 40
0
 41
0
  0
VERTEX
  8
0
 10
3.29465
 20
9.03233
 30
0.0
 40
0
 41
0
  0
VERTEX
  8
0
 10
3.29389
 20
9.03147
 30
0.0
 40
0
 41
0
  0
VERTEX
  8
0
 10
3.29237
 20
9.02815
 30
0.0
 40
0
 41
0
  0
VERTEX
  8
0
 10
3.29204
 20
9.02707
 30
0.0
 40
0
 41
0
  0
VERTEX
  8
0
 10
3.29183
 20
9.02692
 30
0.0
 40
0
 41
0
  0
VERTEX
  8
0
 10
3.29058
 20
9.02653
 30
0.0
 40
0
 41
0
  0
VERTEX
  8
0
 10
3.28369
 20
9.02539
 30
0.0
 40
0
 41
0
  0
VERTEX
  8
0
 10
3.28142
 20
9.02539
 30
0.0
 40
0
 41
0
  0
VERTEX
  8
0
 10
3.2794
 20
9.02539
 30
0.0
 40
0
 41
0
  0
VERTEX
  8
0
 10
3.27354
 20
9.02572
 30
0.0
 40
0
 41
0
  0
VERTEX
  8
0
 10
3.27165
 20
9.02647
 30
0.0
 40
0
 41
0
  0
VERTEX
  8
0
 10
3.27121
 20
9.02669
 30
0.0
 40
0
 41
0
  0
VERTEX
  8
0
 10
3.27056
 20
9.02686
 30
0.0
 40
0
 41
0
  0
VERTEX
  8
0
 10
3.26861
 20
9.03097
 30
0.0
 40
0
 41
0
  0
VERTEX
  8
0
 10
3.26861
 20
9.03233
 30
0.0
 40
0
 41
0
  0
VERTEX
  8
0
 10
3.26861
 20
9.03369
 30
0.0
 40
0
 41
0
  0
VERTEX
  8
0
 10
3.27094
 20
9.03754
 30
0.0
 40
0
 41
0
  0
VERTEX
  8
0
 10
3.27143
 20
9.03776
 30
0.0
 40
0
 41
0
  0
VERTEX
  8
0
 10
3.27149
 20
9.03743
 30
0.0
 40
0
 41
0
  0
VERTEX
  8
0
 10
3.27507
 20
9.03737
 30
0.0
 40
0
 41
0
  0
VERTEX
  8
0
 10
3.28011
 20
9.03928
 30
0.0
 40
0
 41
0
  0
VERTEX
  8
0
 10
3.28185
 20
9.03928
 30
0.0
 40
0
 41
0
  0
VERTEX
  8
0
 10
3.28435
 20
9.03928
 30
0.0
 40
0
 41
0
  0
VERTEX
  8
0
 10
3.29139
 20
9.03803
 30
0.0
 40
0
 41
0
  0
VERTEX
  8
0
 10
3.29183
 20
9.03776
 30
0.0
 40
0
 41
0
  0
VERTEX
  8
0
 10
3.29161
 20
9.037
 30
0.0
 40
0
 41
0
  0
VERTEX
  8
0
 10
3.29275
 20
9.03424
 30
0.0
 40
0
 41
0
  0
VERTEX
  8
0
 10
3.29465
 20
9.03282
 30
0.0
 40
0
 41
0
  0
VERTEX
  8
0
 10
3.29465
 20
9.03233
 30
0.0
 40
0
 41
0
  0
SEQEND
 8
0
  0
POLYLINE
  8
0
 62
     0
 66
     1
 10
0
 20
0
 30
0.0
 70
     1
 40
0
 41
0
  0
VERTEX
  8
0
 10
3.38271
 20
8.91732
 30
0.0
 40
0
 41
0
  0
VERTEX
  8
0
 10
3.38271
 20
8.91699
 30
0.0
 40
0
 41
0
  0
VERTEX
  8
0
 10
3.38232
 20
8.91613
 30
0.0
 40
0
 41
0
  0
VERTEX
  8
0
 10
3.38226
 20
8.91601
 30
0.0
 40
0
 41
0
  0
VERTEX
  8
0
 10
3.38167
 20
8.91596
 30
0.0
 40
0
 41
0
  0
VERTEX
  8
0
 10
3.37993
 20
8.91536
 30
0.0
 40
0
 41
0
  0
VERTEX
  8
0
 10
3.38053
 20
8.91515
 30
0.0
 40
0
 41
0
  0
VERTEX
  8
0
 10
3.38053
 20
8.91515
 30
0.0
 40
0
 41
0
  0
VERTEX
  8
0
 10
3.37972
 20
8.9151
 30
0.0
 40
0
 41
0
  0
VERTEX
  8
0
 10
3.37761
 20
8.91456
 30
0.0
 40
0
 41
0
  0
VERTEX
  8
0
 10
3.37728
 20
8.9145
 30
0.0
 40
0
 41
0
  0
VERTEX
  8
0
 10
3.37625
 20
8.91444
 30
0.0
 40
0
 41
0
  0
VERTEX
  8
0
 10
3.37326
 20
8.91428
 30
0.0
 40
0
 41
0
  0
VERTEX
  8
0
 10
3.37229
 20
8.91428
 30
0.0
 40
0
 41
0
  0
VERTEX
  8
0
 10
3.37104
 20
8.91428
 30
0.0
 40
0
 41
0
  0
VERTEX
  8
0
 10
3.36762
 20
8.9145
 30
0.0
 40
0
 41
0
  0
VERTEX
  8
0
 10
3.36729
 20
8.9145
 30
0.0
 40
0
 41
0
  0
VERTEX
  8
0
 10
3.36649
 20
8.9145
 30
0.0
 40
0
 41
0
  0
VERTEX
  8
0
 10
3.36426
 20
8.9151
 30
0.0
 40
0
 41
0
  0
VERTEX
  8
0
 10
3.36404
 20
8.91515
 30
0.0
 40
0
 41
0
  0
VERTEX
  8
0
 10
3.36367
 20
8.91515
 30
0.0
 40
0
 41
0
  0
VERTEX
  8
0
 10
3.36257
 20
8.91596
 30
0.0
 40
0
 41
0
  0
VERTEX
  8
0
 10
3.36253
 20
8.91601
 30
0.0
 40
0
 41
0
  0
VERTEX
  8
0
 10
3.36242
 20
8.91601
 30
0.0
 40
0
 41
0
  0
VERTEX
  8
0
 10
3.36208
 20
8.91699
 30
0.0
 40
0
 41
0
  0
VERTEX
  8
0
 10
3.36208
 20
8.91732
 30
0.0
 40
0
 41
0
  0
VERTEX
  8
0
 10
3.36208
 20
8.92947
 30
0.0
 40
0
 41
0
  0
VERTEX
  8
0
 10
3.36046
 20
8.92806
 30
0.0
 40
0
 41
0
  0
VERTEX
  8
0
 10
3.35113
 20
8.9184
 30
0.0
 40
0
 41
0
  0
VERTEX
  8
0
 10
3.35015
 20
8.91775
 30
0.0
 40
0
 41
0
  0
VERTEX
  8
0
 10
3.34842
 20
8.91694
 30
0.0
 40
0
 41
0
  0
VERTEX
  8
0
 10
3.34315
 20
8.91471
 30
0.0
 40
0
 41
0
  0
VERTEX
  8
0
 10
3.33957
 20
8.91428
 30
0.0
 40
0
 41
0
  0
VERTEX
  8
0
 10
3.33843
 20
8.91428
 30
0.0
 40
0
 41
0
  0
VERTEX
  8
0
 10
3.33643
 20
8.91428
 30
0.0
 40
0
 41
0
  0
VERTEX
  8
0
 10
3.3304
 20
8.91504
 30
0.0
 40
0
 41
0
  0
VERTEX
  8
0
 10
3.32726
 20
8.91683
 30
0.0
 40
0
 41
0
  0
VERTEX
  8
0
 10
3.3265
 20
8.91732
 30
0.0
 40
0
 41
0
  0
VERTEX
  8
0
 10
3.32493
 20
8.91754
 30
0.0
 40
0
 41
0
  0
VERTEX
  8
0
 10
3.32047
 20
8.92046
 30
0.0
 40
0
 41
0
  0
VERTEX
  8
0
 10
3.31917
 20
8.92453
 30
0.0
 40
0
 41
0
  0
VERTEX
  8
0
 10
3.31868
 20
8.92535
 30
0.0
 40
0
 41
0
  0
VERTEX
  8
0
 10
3.31793
 20
8.92535
 30
0.0
 40
0
 41
0
  0
VERTEX
  8
0
 10
3.31554
 20
8.92958
 30
0.0
 40
0
 41
0
  0
VERTEX
  8
0
 10
3.31478
 20
8.93619
 30
0.0
 40
0
 41
0
  0
VERTEX
  8
0
 10
3.31456
 20
8.93728
 30
0.0
 40
0
 41
0
  0
VERTEX
  8
0
 10
3.31424
 20
8.93772
 30
0.0
 40
0
 41
0
  0
VERTEX
  8
0
 10
3.31326
 20
8.94993
 30
0.0
 40
0
 41
0
  0
VERTEX
  8
0
 10
3.31326
 20
8.954
 30
0.0
 40
0
 41
0
  0
VERTEX
  8
0
 10
3.31326
 20
9.00846
 30
0.0
 40
0
 41
0
  0
VERTEX
  8
0
 10
3.31326
 20
9.00846
 30
0.0
 40
0
 41
0
  0
VERTEX
  8
0
 10
3.31358
 20
9.0095
 30
0.0
 40
0
 41
0
  0
VERTEX
  8
0
 10
3.31369
 20
9.00956
 30
0.0
 40
0
 41
0
  0
VERTEX
  8
0
 10
3.31369
 20
9.00956
 30
0.0
 40
0
 41
0
  0
VERTEX
  8
0
 10
3.31521
 20
9.01058
 30
0.0
 40
0
 41
0
  0
VERTEX
  8
0
 10
3.31543
 20
9.01064
 30
0.0
 40
0
 41
0
  0
VERTEX
  8
0
 10
3.31543
 20
9.01036
 30
0.0
 40
0
 41
0
  0
VERTEX
  8
0
 10
3.31679
 20
9.0095
 30
0.0
 40
0
 41
0
  0
VERTEX
  8
0
 10
3.31853
 20
9.01129
 30
0.0
 40
0
 41
0
  0
VERTEX
  8
0
 10
3.31913
 20
9.01129
 30
0.0
 40
0
 41
0
  0
VERTEX
  8
0
 10
3.31907
 20
9.01101
 30
0.0
 40
0
 41
0
  0
VERTEX
  8
0
 10
3.32081
 20
9.00976
 30
0.0
 40
0
 41
0
  0
VERTEX
  8
0
 10
3.32357
 20
9.0115
 30
0.0
 40
0
 41
0
  0
VERTEX
  8
0
 10
3.32454
 20
9.0115
 30
0.0
 40
0
 41
0
  0
VERTEX
  8
0
 10
3.32454
 20
9.0115
 30
0.0
 40
0
 41
0
  0
VERTEX
  8
0
 10
3.32981
 20
9.01133
 30
0.0
 40
0
 41
0
  0
VERTEX
  8
0
 10
3.33018
 20
9.01129
 30
0.0
 40
0
 41
0
  0
VERTEX
  8
0
 10
3.33018
 20
9.01079
 30
0.0
 40
0
 41
0
  0
VERTEX
  8
0
 10
3.33176
 20
9.00944
 30
0.0
 40
0
 41
0
  0
VERTEX
  8
0
 10
3.33344
 20
9.01074
 30
0.0
 40
0
 41
0
  0
VERTEX
  8
0
 10
3.33365
 20
9.01064
 30
0.0
 40
0
 41
0
  0
VERTEX
  8
0
 10
3.3335
 20
9.01019
 30
0.0
 40
0
 41
0
  0
VERTEX
  8
0
 10
3.33388
 20
9.00851
 30
0.0
 40
0
 41
0
  0
VERTEX
  8
0
 10
3.33539
 20
9.0096
 30
0.0
 40
0
 41
0
  0
VERTEX
  8
0
 10
3.33539
 20
9.00956
 30
0.0
 40
0
 41
0
  0
VERTEX
  8
0
 10
3.33512
 20
9.00911
 30
0.0
 40
0
 41
0
  0
VERTEX
  8
0
 10
3.33479
 20
9.0076
 30
0.0
 40
0
 41
0
  0
VERTEX
  8
0
 10
3.33604
 20
9.00846
 30
0.0
 40
0
 41
0
  0
VERTEX
  8
0
 10
3.33604
 20
9.00846
 30
0.0
 40
0
 41
0
  0
VERTEX
  8
0
 10
3.33604
 20
8.95594
 30
0.0
 40
0
 41
0
  0
VERTEX
  8
0
 10
3.33529
 20
8.95464
 30
0.0
 40
0
 41
0
  0
VERTEX
  8
0
 10
3.33658
 20
8.94417
 30
0.0
 40
0
 41
0
  0
VERTEX
  8
0
 10
3.33669
 20
8.94336
 30
0.0
 40
0
 41
0
  0
VERTEX
  8
0
 10
3.33599
 20
8.94249
 30
0.0
 40
0
 41
0
  0
VERTEX
  8
0
 10
3.33822
 20
8.93571
 30
0.0
 40
0
 41
0
  0
VERTEX
  8
0
 10
3.33843
 20
8.93511
 30
0.0
 40
0
 41
0
  0
VERTEX
  8
0
 10
3.338
 20
8.93446
 30
0.0
 40
0
 41
0
  0
VERTEX
  8
0
 10
3.33843
 20
8.93132
 30
0.0
 40
0
 41
0
  0
VERTEX
  8
0
 10
3.34136
 20
8.93024
 30
0.0
 40
0
 41
0
  0
VERTEX
  8
0
 10
3.34169
 20
8.9299
 30
0.0
 40
0
 41
0
  0
VERTEX
  8
0
 10
3.34196
 20
8.92947
 30
0.0
 40
0
 41
0
  0
VERTEX
  8
0
 10
3.34517
 20
8.92817
 30
0.0
 40
0
 41
0
  0
VERTEX
  8
0
 10
3.34625
 20
8.92817
 30
0.0
 40
0
 41
0
  0
VERTEX
  8
0
 10
3.34787
 20
8.92817
 30
0.0
 40
0
 41
0
  0
VERTEX
  8
0
 10
3.35221
 20
8.93164
 30
0.0
 40
0
 41
0
  0
VERTEX
  8
0
 10
3.35275
 20
8.93229
 30
0.0
 40
0
 41
0
  0
VERTEX
  8
0
 10
3.35243
 20
8.93261
 30
0.0
 40
0
 41
0
  0
VERTEX
  8
0
 10
3.35476
 20
8.93713
 30
0.0
 40
0
 41
0
  0
VERTEX
  8
0
 10
3.35926
 20
8.94353
 30
0.0
 40
0
 41
0
  0
VERTEX
  8
0
 10
3.35992
 20
8.94488
 30
0.0
 40
0
 41
0
  0
VERTEX
  8
0
 10
3.35992
 20
9.00846
 30
0.0
 40
0
 41
0
  0
VERTEX
  8
0
 10
3.35981
 20
9.00831
 30
0.0
 40
0
 41
0
  0
VERTEX
  8
0
 10
3.35938
 20
9.00771
 30
0.0
 40
0
 41
0
  0
VERTEX
  8
0
 10
3.36025
 20
9.0095
 30
0.0
 40
0
 41
0
  0
VERTEX
  8
0
 10
3.36035
 20
9.00956
 30
0.0
 40
0
 41
0
  0
VERTEX
  8
0
 10
3.36025
 20
9.00939
 30
0.0
 40
0
 41
0
  0
VERTEX
  8
0
 10
3.36029
 20
9.00862
 30
0.0
 40
0
 41
0
  0
VERTEX
  8
0
 10
3.36187
 20
9.01058
 30
0.0
 40
0
 41
0
  0
VERTEX
  8
0
 10
3.36208
 20
9.01064
 30
0.0
 40
0
 41
0
  0
VERTEX
  8
0
 10
3.36199
 20
9.01047
 30
0.0
 40
0
 41
0
  0
VERTEX
  8
0
 10
3.36285
 20
9.0095
 30
0.0
 40
0
 41
0
  0
VERTEX
  8
0
 10
3.36501
 20
9.01129
 30
0.0
 40
0
 41
0
  0
VERTEX
  8
0
 10
3.36578
 20
9.01129
 30
0.0
 40
0
 41
0
  0
VERTEX
  8
0
 10
3.36567
 20
9.01113
 30
0.0
 40
0
 41
0
  0
VERTEX
  8
0
 10
3.36686
 20
9.00976
 30
0.0
 40
0
 41
0
  0
VERTEX
  8
0
 10
3.37011
 20
9.0115
 30
0.0
 40
0
 41
0
  0
VERTEX
  8
0
 10
3.37121
 20
9.0115
 30
0.0
 40
0
 41
0
  0
VERTEX
  8
0
 10
3.37261
 20
9.0115
 30
0.0
 40
0
 41
0
  0
VERTEX
  8
0
 10
3.37646
 20
9.01133
 30
0.0
 40
0
 41
0
  0
VERTEX
  8
0
 10
3.37685
 20
9.01129
 30
0.0
 40
0
 41
0
  0
VERTEX
  8
0
 10
3.37674
 20
9.01096
 30
0.0
 40
0
 41
0
  0
VERTEX
  8
0
 10
3.37771
 20
9.00944
 30
0.0
 40
0
 41
0
  0
VERTEX
  8
0
 10
3.37989
 20
9.01074
 30
0.0
 40
0
 41
0
  0
VERTEX
  8
0
 10
3.3801
 20
9.01064
 30
0.0
 40
0
 41
0
  0
VERTEX
  8
0
 10
3.37983
 20
9.01025
 30
0.0
 40
0
 41
0
  0
VERTEX
  8
0
 10
3.37978
 20
9.00851
 30
0.0
 40
0
 41
0
  0
VERTEX
  8
0
 10
3.38194
 20
9.00965
 30
0.0
 40
0
 41
0
  0
VERTEX
  8
0
 10
3.38206
 20
9.00956
 30
0.0
 40
0
 41
0
  0
VERTEX
  8
0
 10
3.38167
 20
9.00917
 30
0.0
 40
0
 41
0
  0
VERTEX
  8
0
 10
3.38086
 20
9.0076
 30
0.0
 40
0
 41
0
  0
VERTEX
  8
0
 10
3.38271
 20
9.00846
 30
0.0
 40
0
 41
0
  0
VERTEX
  8
0
 10
3.38271
 20
9.00846
 30
0.0
 40
0
 41
0
  0
VERTEX
  8
0
 10
3.38271
 20
8.91732
 30
0.0
 40
0
 41
0
  0
SEQEND
 8
0
  0
POLYLINE
  8
0
 62
     0
 66
     1
 10
0
 20
0
 30
0.0
 70
     1
 40
0
 41
0
  0
VERTEX
  8
0
 10
3.47114
 20
8.94271
 30
0.0
 40
0
 41
0
  0
VERTEX
  8
0
 10
3.47114
 20
8.93967
 30
0.0
 40
0
 41
0
  0
VERTEX
  8
0
 10
3.46929
 20
8.93147
 30
0.0
 40
0
 41
0
  0
VERTEX
  8
0
 10
3.46897
 20
8.93056
 30
0.0
 40
0
 41
0
  0
VERTEX
  8
0
 10
3.46772
 20
8.92958
 30
0.0
 40
0
 41
0
  0
VERTEX
  8
0
 10
3.46479
 20
8.92546
 30
0.0
 40
0
 41
0
  0
VERTEX
  8
0
 10
3.46332
 20
8.92231
 30
0.0
 40
0
 41
0
  0
VERTEX
  8
0
 10
3.46268
 20
8.92165
 30
0.0
 40
0
 41
0
  0
VERTEX
  8
0
 10
3.46153
 20
8.92046
 30
0.0
 40
0
 41
0
  0
VERTEX
  8
0
 10
3.45367
 20
8.91635
 30
0.0
 40
0
 41
0
  0
VERTEX
  8
0
 10
3.45269
 20
8.91601
 30
0.0
 40
0
 41
0
  0
VERTEX
  8
0
 10
3.45096
 20
8.91558
 30
0.0
 40
0
 41
0
  0
VERTEX
  8
0
 10
3.44299
 20
8.91428
 30
0.0
 40
0
 41
0
  0
VERTEX
  8
0
 10
3.44032
 20
8.91428
 30
0.0
 40
0
 41
0
  0
VERTEX
  8
0
 10
3.43832
 20
8.91428
 30
0.0
 40
0
 41
0
  0
VERTEX
  8
0
 10
3.43375
 20
8.91428
 30
0.0
 40
0
 41
0
  0
VERTEX
  8
0
 10
3.43229
 20
8.91428
 30
0.0
 40
0
 41
0
  0
VERTEX
  8
0
 10
3.43061
 20
8.91428
 30
0.0
 40
0
 41
0
  0
VERTEX
  8
0
 10
3.42681
 20
8.91428
 30
0.0
 40
0
 41
0
  0
VERTEX
  8
0
 10
3.42557
 20
8.91428
 30
0.0
 40
0
 41
0
  0
VERTEX
  8
0
 10
3.42426
 20
8.91428
 30
0.0
 40
0
 41
0
  0
VERTEX
  8
0
 10
3.42133
 20
8.91428
 30
0.0
 40
0
 41
0
  0
VERTEX
  8
0
 10
3.42036
 20
8.91428
 30
0.0
 40
0
 41
0
  0
VERTEX
  8
0
 10
3.4196
 20
8.91428
 30
0.0
 40
0
 41
0
  0
VERTEX
  8
0
 10
3.41786
 20
8.91428
 30
0.0
 40
0
 41
0
  0
VERTEX
  8
0
 10
3.41732
 20
8.91428
 30
0.0
 40
0
 41
0
  0
VERTEX
  8
0
 10
3.41699
 20
8.91428
 30
0.0
 40
0
 41
0
  0
VERTEX
  8
0
 10
3.41607
 20
8.91575
 30
0.0
 40
0
 41
0
  0
VERTEX
  8
0
 10
3.41601
 20
8.91601
 30
0.0
 40
0
 41
0
  0
VERTEX
  8
0
 10
3.4159
 20
8.91624
 30
0.0
 40
0
 41
0
  0
VERTEX
  8
0
 10
3.41558
 20
8.91997
 30
0.0
 40
0
 41
0
  0
VERTEX
  8
0
 10
3.41558
 20
8.92122
 30
0.0
 40
0
 41
0
  0
VERTEX
  8
0
 10
3.41558
 20
8.92122
 30
0.0
 40
0
 41
0
  0
VERTEX
  8
0
 10
3.41558
 20
8.92367
 30
0.0
 40
0
 41
0
  0
VERTEX
  8
0
 10
3.41558
 20
8.92449
 30
0.0
 40
0
 41
0
  0
VERTEX
  8
0
 10
3.41558
 20
8.92449
 30
0.0
 40
0
 41
0
  0
VERTEX
  8
0
 10
3.41596
 20
8.92654
 30
0.0
 40
0
 41
0
  0
VERTEX
  8
0
 10
3.41601
 20
8.92665
 30
0.0
 40
0
 41
0
  0
VERTEX
  8
0
 10
3.41601
 20
8.92665
 30
0.0
 40
0
 41
0
  0
VERTEX
  8
0
 10
3.41656
 20
8.92774
 30
0.0
 40
0
 41
0
  0
VERTEX
  8
0
 10
3.41667
 20
8.92774
 30
0.0
 40
0
 41
0
  0
VERTEX
  8
0
 10
3.41667
 20
8.9274
 30
0.0
 40
0
 41
0
  0
VERTEX
  8
0
 10
3.41694
 20
8.92637
 30
0.0
 40
0
 41
0
  0
VERTEX
  8
0
 10
3.41737
 20
8.92817
 30
0.0
 40
0
 41
0
  0
VERTEX
  8
0
 10
3.41754
 20
8.92817
 30
0.0
 40
0
 41
0
  0
VERTEX
  8
0
 10
3.41754
 20
8.92817
 30
0.0
 40
0
 41
0
  0
VERTEX
  8
0
 10
3.41917
 20
8.92817
 30
0.0
 40
0
 41
0
  0
VERTEX
  8
0
 10
3.41971
 20
8.92817
 30
0.0
 40
0
 41
0
  0
VERTEX
  8
0
 10
3.41971
 20
8.92817
 30
0.0
 40
0
 41
0
  0
VERTEX
  8
0
 10
3.42247
 20
8.92817
 30
0.0
 40
0
 41
0
  0
VERTEX
  8
0
 10
3.42339
 20
8.92817
 30
0.0
 40
0
 41
0
  0
VERTEX
  8
0
 10
3.42339
 20
8.92817
 30
0.0
 40
0
 41
0
  0
VERTEX
  8
0
 10
3.42731
 20
8.92817
 30
0.0
 40
0
 41
0
  0
VERTEX
  8
0
 10
3.4286
 20
8.92817
 30
0.0
 40
0
 41
0
  0
VERTEX
  8
0
 10
3.4286
 20
8.92817
 30
0.0
 40
0
 41
0
  0
VERTEX
  8
0
 10
3.43365
 20
8.92817
 30
0.0
 40
0
 41
0
  0
VERTEX
  8
0
 10
3.43533
 20
8.92817
 30
0.0
 40
0
 41
0
  0
VERTEX
  8
0
 10
3.43664
 20
8.92817
 30
0.0
 40
0
 41
0
  0
VERTEX
  8
0
 10
3.44015
 20
8.92893
 30
0.0
 40
0
 41
0
  0
VERTEX
  8
0
 10
3.44054
 20
8.92904
 30
0.0
 40
0
 41
0
  0
VERTEX
  8
0
 10
3.44054
 20
8.92904
 30
0.0
 40
0
 41
0
  0
VERTEX
  8
0
 10
3.44433
 20
8.93121
 30
0.0
 40
0
 41
0
  0
VERTEX
  8
0
 10
3.44467
 20
8.93143
 30
0.0
 40
0
 41
0
  0
VERTEX
  8
0
 10
3.44482
 20
8.93143
 30
0.0
 40
0
 41
0
  0
VERTEX
  8
0
 10
3.4471
 20
8.93494
 30
0.0
 40
0
 41
0
  0
VERTEX
  8
0
 10
3.44726
 20
8.93533
 30
0.0
 40
0
 41
0
  0
VERTEX
  8
0
 10
3.44726
 20
8.93533
 30
0.0
 40
0
 41
0
  0
VERTEX
  8
0
 10
3.44835
 20
8.93989
 30
0.0
 40
0
 41
0
  0
VERTEX
  8
0
 10
3.44835
 20
8.9414
 30
0.0
 40
0
 41
0
  0
VERTEX
  8
0
 10
3.44835
 20
8.9414
 30
0.0
 40
0
 41
0
  0
VERTEX
  8
0
 10
3.44732
 20
8.94319
 30
0.0
 40
0
 41
0
  0
VERTEX
  8
0
 10
3.44706
 20
8.94726
 30
0.0
 40
0
 41
0
  0
VERTEX
  8
0
 10
3.44683
 20
8.94769
 30
0.0
 40
0
 41
0
  0
VERTEX
  8
0
 10
3.44629
 20
8.94769
 30
0.0
 40
0
 41
0
  0
VERTEX
  8
0
 10
3.44353
 20
8.95193
 30
0.0
 40
0
 41
0
  0
VERTEX
  8
0
 10
3.44314
 20
8.95226
 30
0.0
 40
0
 41
0
  0
VERTEX
  8
0
 10
3.44228
 20
8.95199
 30
0.0
 40
0
 41
0
  0
VERTEX
  8
0
 10
3.43901
 20
8.95285
 30
0.0
 40
0
 41
0
  0
VERTEX
  8
0
 10
3.43842
 20
8.95551
 30
0.0
 40
0
 41
0
  0
VERTEX
  8
0
 10
3.43793
 20
8.95574
 30
0.0
 40
0
 41
0
  0
VERTEX
  8
0
 10
3.43728
 20
8.95524
 30
0.0
 40
0
 41
0
  0
VERTEX
  8
0
 10
3.43392
 20
8.95557
 30
0.0
 40
0
 41
0
  0
VERTEX
  8
0
 10
3.4324
 20
8.95856
 30
0.0
 40
0
 41
0
  0
VERTEX
  8
0
 10
3.43186
 20
8.95876
 30
0.0
 40
0
 41
0
  0
VERTEX
  8
0
 10
3.43115
 20
8.95882
 30
0.0
 40
0
 41
0
  0
VERTEX
  8
0
 10
3.42626
 20
8.96235
 30
0.0
 40
0
 41
0
  0
VERTEX
  8
0
 10
3.42578
 20
8.96268
 30
0.0
 40
0
 41
0
  0
VERTEX
  8
0
 10
3.42486
 20
8.96257
 30
0.0
 40
0
 41
0
  0
VERTEX
  8
0
 10
3.42176
 20
8.96425
 30
0.0
 40
0
 41
0
  0
VERTEX
  8
0
 10
3.42096
 20
8.96739
 30
0.0
 40
0
 41
0
  0
VERTEX
  8
0
 10
3.42057
 20
8.96789
 30
0.0
 40
0
 41
0
  0
VERTEX
  8
0
 10
3.42031
 20
8.96772
 30
0.0
 40
0
 41
0
  0
VERTEX
  8
0
 10
3.41792
 20
8.96972
 30
0.0
 40
0
 41
0
  0
VERTEX
  8
0
 10
3.4171
 20
8.97439
 30
0.0
 40
0
 41
0
  0
VERTEX
  8
0
 10
3.41689
 20
8.97504
 30
0.0
 40
0
 41
0
  0
VERTEX
  8
0
 10
3.41656
 20
8.97537
 30
0.0
 40
0
 41
0
  0
VERTEX
  8
0
 10
3.41558
 20
8.98281
 30
0.0
 40
0
 41
0
  0
VERTEX
  8
0
 10
3.41558
 20
8.98525
 30
0.0
 40
0
 41
0
  0
VERTEX
  8
0
 10
3.41558
 20
8.98774
 30
0.0
 40
0
 41
0
  0
VERTEX
  8
0
 10
3.41721
 20
8.99447
 30
0.0
 40
0
 41
0
  0
VERTEX
  8
0
 10
3.41754
 20
8.99522
 30
0.0
 40
0
 41
0
  0
VERTEX
  8
0
 10
3.41754
 20
8.99522
 30
0.0
 40
0
 41
0
  0
VERTEX
  8
0
 10
3.42275
 20
9.00293
 30
0.0
 40
0
 41
0
  0
VERTEX
  8
0
 10
3.42339
 20
9.00347
 30
0.0
 40
0
 41
0
  0
VERTEX
  8
0
 10
3.42339
 20
9.00364
 30
0.0
 40
0
 41
0
  0
VERTEX
  8
0
 10
3.42697
 20
9.00608
 30
0.0
 40
0
 41
0
  0
VERTEX
  8
0
 10
3.43257
 20
9.009
 30
0.0
 40
0
 41
0
  0
VERTEX
  8
0
 10
3.4336
 20
9.00933
 30
0.0
 40
0
 41
0
  0
VERTEX
  8
0
 10
3.43425
 20
9.00874
 30
0.0
 40
0
 41
0
  0
VERTEX
  8
0
 10
3.43961
 20
9.0095
 30
0.0
 40
0
 41
0
  0
VERTEX
  8
0
 10
3.44564
 20
9.0115
 30
0.0
 40
0
 41
0
  0
VERTEX
  8
0
 10
3.44769
 20
9.0115
 30
0.0
 40
0
 41
0
  0
VERTEX
  8
0
 10
3.44943
 20
9.0115
 30
0.0
 40
0
 41
0
  0
VERTEX
  8
0
 10
3.45335
 20
9.0115
 30
0.0
 40
0
 41
0
  0
VERTEX
  8
0
 10
3.45464
 20
9.0115
 30
0.0
 40
0
 41
0
  0
VERTEX
  8
0
 10
3.45464
 20
9.0115
 30
0.0
 40
0
 41
0
  0
VERTEX
  8
0
 10
3.45936
 20
9.0115
 30
0.0
 40
0
 41
0
  0
VERTEX
  8
0
 10
3.46094
 20
9.0115
 30
0.0
 40
0
 41
0
  0
VERTEX
  8
0
 10
3.46212
 20
9.0115
 30
0.0
 40
0
 41
0
  0
VERTEX
  8
0
 10
3.46479
 20
9.0115
 30
0.0
 40
0
 41
0
  0
VERTEX
  8
0
 10
3.46571
 20
9.0115
 30
0.0
 40
0
 41
0
  0
VERTEX
  8
0
 10
3.46571
 20
9.0115
 30
0.0
 40
0
 41
0
  0
VERTEX
  8
0
 10
3.46799
 20
9.0115
 30
0.0
 40
0
 41
0
  0
VERTEX
  8
0
 10
3.46875
 20
9.0115
 30
0.0
 40
0
 41
0
  0
VERTEX
  8
0
 10
3.46875
 20
9.0115
 30
0.0
 40
0
 41
0
  0
VERTEX
  8
0
 10
3.47
 20
9.01096
 30
0.0
 40
0
 41
0
  0
VERTEX
  8
0
 10
3.47006
 20
9.01085
 30
0.0
 40
0
 41
0
  0
VERTEX
  8
0
 10
3.46963
 20
9.01036
 30
0.0
 40
0
 41
0
  0
VERTEX
  8
0
 10
3.46881
 20
9.00846
 30
0.0
 40
0
 41
0
  0
VERTEX
  8
0
 10
3.47071
 20
9.00933
 30
0.0
 40
0
 41
0
  0
VERTEX
  8
0
 10
3.47071
 20
9.00933
 30
0.0
 40
0
 41
0
  0
VERTEX
  8
0
 10
3.47021
 20
9.0089
 30
0.0
 40
0
 41
0
  0
VERTEX
  8
0
 10
3.46918
 20
9.00706
 30
0.0
 40
0
 41
0
  0
VERTEX
  8
0
 10
3.47092
 20
9.00738
 30
0.0
 40
0
 41
0
  0
VERTEX
  8
0
 10
3.47092
 20
9.00738
 30
0.0
 40
0
 41
0
  0
VERTEX
  8
0
 10
3.47038
 20
9.00694
 30
0.0
 40
0
 41
0
  0
VERTEX
  8
0
 10
3.46935
 20
9.00493
 30
0.0
 40
0
 41
0
  0
VERTEX
  8
0
 10
3.47114
 20
9.00467
 30
0.0
 40
0
 41
0
  0
VERTEX
  8
0
 10
3.47114
 20
9.00456
 30
0.0
 40
0
 41
0
  0
VERTEX
  8
0
 10
3.47114
 20
9.00375
 30
0.0
 40
0
 41
0
  0
VERTEX
  8
0
 10
3.47092
 20
9.00157
 30
0.0
 40
0
 41
0
  0
VERTEX
  8
0
 10
3.47092
 20
9.00131
 30
0.0
 40
0
 41
0
  0
VERTEX
  8
0
 10
3.47038
 20
9.00108
 30
0.0
 40
0
 41
0
  0
VERTEX
  8
0
 10
3.46907
 20
8.99968
 30
0.0
 40
0
 41
0
  0
VERTEX
  8
0
 10
3.47049
 20
8.99914
 30
0.0
 40
0
 41
0
  0
VERTEX
  8
0
 10
3.47049
 20
8.99914
 30
0.0
 40
0
 41
0
  0
VERTEX
  8
0
 10
3.46994
 20
8.99903
 30
0.0
 40
0
 41
0
  0
VERTEX
  8
0
 10
3.46853
 20
8.99821
 30
0.0
 40
0
 41
0
  0
VERTEX
  8
0
 10
3.46983
 20
8.99783
 30
0.0
 40
0
 41
0
  0
VERTEX
  8
0
 10
3.46983
 20
8.99783
 30
0.0
 40
0
 41
0
  0
VERTEX
  8
0
 10
3.46963
 20
8.99783
 30
0.0
 40
0
 41
0
  0
VERTEX
  8
0
 10
3.46912
 20
8.99761
 30
0.0
 40
0
 41
0
  0
VERTEX
  8
0
 10
3.46897
 20
8.99761
 30
0.0
 40
0
 41
0
  0
VERTEX
  8
0
 10
3.46843
 20
8.99761
 30
0.0
 40
0
 41
0
  0
VERTEX
  8
0
 10
3.46718
 20
8.99761
 30
0.0
 40
0
 41
0
  0
VERTEX
  8
0
 10
3.46679
 20
8.99761
 30
0.0
 40
0
 41
0
  0
VERTEX
  8
0
 10
3.46593
 20
8.99761
 30
0.0
 40
0
 41
0
  0
VERTEX
  8
0
 10
3.46397
 20
8.99761
 30
0.0
 40
0
 41
0
  0
VERTEX
  8
0
 10
3.46332
 20
8.99761
 30
0.0
 40
0
 41
0
  0
VERTEX
  8
0
 10
3.46203
 20
8.99761
 30
0.0
 40
0
 41
0
  0
VERTEX
  8
0
 10
3.4591
 20
8.99761
 30
0.0
 40
0
 41
0
  0
VERTEX
  8
0
 10
3.45811
 20
8.99761
 30
0.0
 40
0
 41
0
  0
VERTEX
  8
0
 10
3.45643
 20
8.99761
 30
0.0
 40
0
 41
0
  0
VERTEX
  8
0
 10
3.45264
 20
8.99761
 30
0.0
 40
0
 41
0
  0
VERTEX
  8
0
 10
3.45139
 20
8.99761
 30
0.0
 40
0
 41
0
  0
VERTEX
  8
0
 10
3.44988
 20
8.99761
 30
0.0
 40
0
 41
0
  0
VERTEX
  8
0
 10
3.44575
 20
8.9969
 30
0.0
 40
0
 41
0
  0
VERTEX
  8
0
 10
3.44532
 20
8.99675
 30
0.0
 40
0
 41
0
  0
VERTEX
  8
0
 10
3.44493
 20
8.99599
 30
0.0
 40
0
 41
0
  0
VERTEX
  8
0
 10
3.44265
 20
8.99408
 30
0.0
 40
0
 41
0
  0
VERTEX
  8
0
 10
3.44114
 20
8.99457
 30
0.0
 40
0
 41
0
  0
VERTEX
  8
0
 10
3.44097
 20
8.99436
 30
0.0
 40
0
 41
0
  0
VERTEX
  8
0
 10
3.44021
 20
8.99371
 30
0.0
 40
0
 41
0
  0
VERTEX
  8
0
 10
3.43815
 20
8.99138
 30
0.0
 40
0
 41
0
  0
VERTEX
  8
0
 10
3.43858
 20
8.99078
 30
0.0
 40
0
 41
0
  0
VERTEX
  8
0
 10
3.43858
 20
8.99067
 30
0.0
 40
0
 41
0
  0
VERTEX
  8
0
 10
3.43799
 20
8.99007
 30
0.0
 40
0
 41
0
  0
VERTEX
  8
0
 10
3.43674
 20
8.98757
 30
0.0
 40
0
 41
0
  0
VERTEX
  8
0
 10
3.43772
 20
8.98649
 30
0.0
 40
0
 41
0
  0
VERTEX
  8
0
 10
3.43772
 20
8.98611
 30
0.0
 40
0
 41
0
  0
VERTEX
  8
0
 10
3.43701
 20
8.98529
 30
0.0
 40
0
 41
0
  0
VERTEX
  8
0
 10
3.43881
 20
8.98004
 30
0.0
 40
0
 41
0
  0
VERTEX
  8
0
 10
3.43901
 20
8.9796
 30
0.0
 40
0
 41
0
  0
VERTEX
  8
0
 10
3.43869
 20
8.97889
 30
0.0
 40
0
 41
0
  0
VERTEX
  8
0
 10
3.43951
 20
8.97597
 30
0.0
 40
0
 41
0
  0
VERTEX
  8
0
 10
3.44249
 20
8.97537
 30
0.0
 40
0
 41
0
  0
VERTEX
  8
0
 10
3.44293
 20
8.97504
 30
0.0
 40
0
 41
0
  0
VERTEX
  8
0
 10
3.44271
 20
8.97483
 30
0.0
 40
0
 41
0
  0
VERTEX
  8
0
 10
3.44374
 20
8.97254
 30
0.0
 40
0
 41
0
  0
VERTEX
  8
0
 10
3.44781
 20
8.97185
 30
0.0
 40
0
 41
0
  0
VERTEX
  8
0
 10
3.44835
 20
8.97157
 30
0.0
 40
0
 41
0
  0
VERTEX
  8
0
 10
3.4484
 20
8.97119
 30
0.0
 40
0
 41
0
  0
VERTEX
  8
0
 10
3.45389
 20
8.96864
 30
0.0
 40
0
 41
0
  0
VERTEX
  8
0
 10
3.45443
 20
8.96832
 30
0.0
 40
0
 41
0
  0
VERTEX
  8
0
 10
3.45421
 20
8.96767
 30
0.0
 40
0
 41
0
  0
VERTEX
  8
0
 10
3.45606
 20
8.9649
 30
0.0
 40
0
 41
0
  0
VERTEX
  8
0
 10
3.45996
 20
8.96479
 30
0.0
 40
0
 41
0
  0
VERTEX
  8
0
 10
3.4605
 20
8.96442
 30
0.0
 40
0
 41
0
  0
VERTEX
  8
0
 10
3.46072
 20
8.96337
 30
0.0
 40
0
 41
0
  0
VERTEX
  8
0
 10
3.4655
 20
8.95996
 30
0.0
 40
0
 41
0
  0
VERTEX
  8
0
 10
3.46593
 20
8.95942
 30
0.0
 40
0
 41
0
  0
VERTEX
  8
0
 10
3.4656
 20
8.95865
 30
0.0
 40
0
 41
0
  0
VERTEX
  8
0
 10
3.4694
 20
8.95318
 30
0.0
 40
0
 41
0
  0
VERTEX
  8
0
 10
3.46963
 20
8.95247
 30
0.0
 40
0
 41
0
  0
VERTEX
  8
0
 10
3.46903
 20
8.95128
 30
0.0
 40
0
 41
0
  0
VERTEX
  8
0
 10
3.46918
 20
8.94667
 30
0.0
 40
0
 41
0
  0
VERTEX
  8
0
 10
3.47114
 20
8.94374
 30
0.0
 40
0
 41
0
  0
VERTEX
  8
0
 10
3.47114
 20
8.94271
 30
0.0
 40
0
 41
0
  0
SEQEND
 8
0
  0
TEXT
  8
0
 62
     0
 10
3.57143
 20
8.91431
 30
0.0
 40
0.195
  1
Single
 50
0
  0
TEXT
  8
0
 62
     0
 10
4.04235
 20
8.91431
 30
0.0
 40
0.195
  1
 B
 50
0
  0
TEXT
  8
0
 62
     0
 10
4.24129
 20
8.91431
 30
0.0
 40
0.195
  1
owl 
 50
0
  0
POLYLINE
  8
0
 62
     0
 66
     1
 10
0
 20
0
 30
0.0
 70
     1
 40
0
 41
0
  0
VERTEX
  8
0
 10
0.310926
 20
8.72401
 30
0.0
 40
0
 41
0
  0
VERTEX
  8
0
 10
0.310926
 20
8.71903
 30
0.0
 40
0
 41
0
  0
VERTEX
  8
0
 10
0.307997
 20
8.70557
 30
0.0
 40
0
 41
0
  0
VERTEX
  8
0
 10
0.307454
 20
8.70404
 30
0.0
 40
0
 41
0
  0
VERTEX
  8
0
 10
0.306044
 20
8.70167
 30
0.0
 40
0
 41
0
  0
VERTEX
  8
0
 10
0.301867
 20
8.69439
 30
0.0
 40
0
 41
0
  0
VERTEX
  8
0
 10
0.298557
 20
8.69032
 30
0.0
 40
0
 41
0
  0
VERTEX
  8
0
 10
0.297472
 20
8.68929
 30
0.0
 40
0
 41
0
  0
VERTEX
  8
0
 10
0.296386
 20
8.68728
 30
0.0
 40
0
 41
0
  0
VERTEX
  8
0
 10
0.290419
 20
8.6824
 30
0.0
 40
0
 41
0
  0
VERTEX
  8
0
 10
0.283583
 20
8.6805
 30
0.0
 40
0
 41
0
  0
VERTEX
  8
0
 10
0.282064
 20
8.67996
 30
0.0
 40
0
 41
0
  0
VERTEX
  8
0
 10
0.27946
 20
8.67919
 30
0.0
 40
0
 41
0
  0
VERTEX
  8
0
 10
0.270671
 20
8.67731
 30
0.0
 40
0
 41
0
  0
VERTEX
  8
0
 10
0.263564
 20
8.67692
 30
0.0
 40
0
 41
0
  0
VERTEX
  8
0
 10
0.261231
 20
8.67692
 30
0.0
 40
0
 41
0
  0
VERTEX
  8
0
 10
0.256347
 20
8.67692
 30
0.0
 40
0
 41
0
  0
VERTEX
  8
0
 10
0.243164
 20
8.67931
 30
0.0
 40
0
 41
0
  0
VERTEX
  8
0
 10
0.241699
 20
8.67974
 30
0.0
 40
0
 41
0
  0
VERTEX
  8
0
 10
0.240235
 20
8.68001
 30
0.0
 40
0
 41
0
  0
VERTEX
  8
0
 10
0.227756
 20
8.6875
 30
0.0
 40
0
 41
0
  0
VERTEX
  8
0
 10
0.226725
 20
8.68842
 30
0.0
 40
0
 41
0
  0
VERTEX
  8
0
 10
0.224881
 20
8.68842
 30
0.0
 40
0
 41
0
  0
VERTEX
  8
0
 10
0.219456
 20
8.69353
 30
0.0
 40
0
 41
0
  0
VERTEX
  8
0
 10
0.217503
 20
8.70133
 30
0.0
 40
0
 41
0
  0
VERTEX
  8
0
 10
0.21696
 20
8.70275
 30
0.0
 40
0
 41
0
  0
VERTEX
  8
0
 10
0.216146
 20
8.70324
 30
0.0
 40
0
 41
0
  0
VERTEX
  8
0
 10
0.214085
 20
8.71061
 30
0.0
 40
0
 41
0
  0
VERTEX
  8
0
 10
0.213704
 20
8.71972
 30
0.0
 40
0
 41
0
  0
VERTEX
  8
0
 10
0.213704
 20
8.72271
 30
0.0
 40
0
 41
0
  0
VERTEX
  8
0
 10
0.213704
 20
8.79889
 30
0.0
 40
0
 41
0
  0
VERTEX
  8
0
 10
0.213704
 20
8.79889
 30
0.0
 40
0
 41
0
  0
VERTEX
  8
0
 10
0.214031
 20
8.80013
 30
0.0
 40
0
 41
0
  0
VERTEX
  8
0
 10
0.214139
 20
8.80018
 30
0.0
 40
0
 41
0
  0
VERTEX
  8
0
 10
0.214139
 20
8.80018
 30
0.0
 40
0
 41
0
  0
VERTEX
  8
0
 10
0.215875
 20
8.80106
 30
0.0
 40
0
 41
0
  0
VERTEX
  8
0
 10
0.216092
 20
8.80106
 30
0.0
 40
0
 41
0
  0
VERTEX
  8
0
 10
0.216092
 20
8.80078
 30
0.0
 40
0
 41
0
  0
VERTEX
  8
0
 10
0.217285
 20
8.79981
 30
0.0
 40
0
 41
0
  0
VERTEX
  8
0
 10
0.219185
 20
8.80171
 30
0.0
 40
0
 41
0
  0
VERTEX
  8
0
 10
0.219564
 20
8.80171
 30
0.0
 40
0
 41
0
  0
VERTEX
  8
0
 10
0.21951
 20
8.80143
 30
0.0
 40
0
 41
0
  0
VERTEX
  8
0
 10
0.2213
 20
8.80018
 30
0.0
 40
0
 41
0
  0
VERTEX
  8
0
 10
0.224229
 20
8.80192
 30
0.0
 40
0
 41
0
  0
VERTEX
  8
0
 10
0.225206
 20
8.80192
 30
0.0
 40
0
 41
0
  0
VERTEX
  8
0
 10
0.225206
 20
8.80192
 30
0.0
 40
0
 41
0
  0
VERTEX
  8
0
 10
0.230251
 20
8.80176
 30
0.0
 40
0
 41
0
  0
VERTEX
  8
0
 10
0.230632
 20
8.80171
 30
0.0
 40
0
 41
0
  0
VERTEX
  8
0
 10
0.230686
 20
8.80122
 30
0.0
 40
0
 41
0
  0
VERTEX
  8
0
 10
0.232314
 20
8.79975
 30
0.0
 40
0
 41
0
  0
VERTEX
  8
0
 10
0.234104
 20
8.80117
 30
0.0
 40
0
 41
0
  0
VERTEX
  8
0
 10
0.234321
 20
8.80106
 30
0.0
 40
0
 41
0
  0
VERTEX
  8
0
 10
0.234158
 20
8.80067
 30
0.0
 40
0
 41
0
  0
VERTEX
  8
0
 10
0.234537
 20
8.7991
 30
0.0
 40
0
 41
0
  0
VERTEX
  8
0
 10
0.236057
 20
8.80018
 30
0.0
 40
0
 41
0
  0
VERTEX
  8
0
 10
0.236057
 20
8.80018
 30
0.0
 40
0
 41
0
  0
VERTEX
  8
0
 10
0.235786
 20
8.79975
 30
0.0
 40
0
 41
0
  0
VERTEX
  8
0
 10
0.23546
 20
8.79813
 30
0.0
 40
0
 41
0
  0
VERTEX
  8
0
 10
0.236708
 20
8.79889
 30
0.0
 40
0
 41
0
  0
VERTEX
  8
0
 10
0.236708
 20
8.79889
 30
0.0
 40
0
 41
0
  0
VERTEX
  8
0
 10
0.236708
 20
8.72467
 30
0.0
 40
0
 41
0
  0
VERTEX
  8
0
 10
0.235949
 20
8.72276
 30
0.0
 40
0
 41
0
  0
VERTEX
  8
0
 10
0.235949
 20
8.71599
 30
0.0
 40
0
 41
0
  0
VERTEX
  8
0
 10
0.238118
 20
8.71099
 30
0.0
 40
0
 41
0
  0
VERTEX
  8
0
 10
0.238444
 20
8.7099
 30
0.0
 40
0
 41
0
  0
VERTEX
  8
0
 10
0.237901
 20
8.70861
 30
0.0
 40
0
 41
0
  0
VERTEX
  8
0
 10
0.23915
 20
8.70344
 30
0.0
 40
0
 41
0
  0
VERTEX
  8
0
 10
0.242893
 20
8.70003
 30
0.0
 40
0
 41
0
  0
VERTEX
  8
0
 10
0.243435
 20
8.69928
 30
0.0
 40
0
 41
0
  0
VERTEX
  8
0
 10
0.243815
 20
8.69792
 30
0.0
 40
0
 41
0
  0
VERTEX
  8
0
 10
0.250868
 20
8.69336
 30
0.0
 40
0
 41
0
  0
VERTEX
  8
0
 10
0.251682
 20
8.69299
 30
0.0
 40
0
 41
0
  0
VERTEX
  8
0
 10
0.251628
 20
8.69265
 30
0.0
 40
0
 41
0
  0
VERTEX
  8
0
 10
0.255425
 20
8.69108
 30
0.0
 40
0
 41
0
  0
VERTEX
  8
0
 10
0.260579
 20
8.69081
 30
0.0
 40
0
 41
0
  0
VERTEX
  8
0
 10
0.262315
 20
8.69081
 30
0.0
 40
0
 41
0
  0
VERTEX
  8
0
 10
0.265028
 20
8.69081
 30
0.0
 40
0
 41
0
  0
VERTEX
  8
0
 10
0.272353
 20
8.69243
 30
0.0
 40
0
 41
0
  0
VERTEX
  8
0
 10
0.273167
 20
8.69276
 30
0.0
 40
0
 41
0
  0
VERTEX
  8
0
 10
0.2736
 20
8.69299
 30
0.0
 40
0
 41
0
  0
VERTEX
  8
0
 10
0.280653
 20
8.6984
 30
0.0
 40
0
 41
0
  0
VERTEX
  8
0
 10
0.281196
 20
8.69906
 30
0.0
 40
0
 41
0
  0
VERTEX
  8
0
 10
0.281196
 20
8.69906
 30
0.0
 40
0
 41
0
  0
VERTEX
  8
0
 10
0.282553
 20
8.70281
 30
0.0
 40
0
 41
0
  0
VERTEX
  8
0
 10
0.285861
 20
8.7085
 30
0.0
 40
0
 41
0
  0
VERTEX
  8
0
 10
0.286187
 20
8.70947
 30
0.0
 40
0
 41
0
  0
VERTEX
  8
0
 10
0.286187
 20
8.71013
 30
0.0
 40
0
 41
0
  0
VERTEX
  8
0
 10
0.287924
 20
8.72038
 30
0.0
 40
0
 41
0
  0
VERTEX
  8
0
 10
0.287924
 20
8.72379
 30
0.0
 40
0
 41
0
  0
VERTEX
  8
0
 10
0.287924
 20
8.79889
 30
0.0
 40
0
 41
0
  0
VERTEX
  8
0
 10
0.287815
 20
8.79872
 30
0.0
 40
0
 41
0
  0
VERTEX
  8
0
 10
0.287381
 20
8.79829
 30
0.0
 40
0
 41
0
  0
VERTEX
  8
0
 10
0.288249
 20
8.80013
 30
0.0
 40
0
 41
0
  0
VERTEX
  8
0
 10
0.288357
 20
8.80018
 30
0.0
 40
0
 41
0
  0
VERTEX
  8
0
 10
0.288249
 20
8.80003
 30
0.0
 40
0
 41
0
  0
VERTEX
  8
0
 10
0.288519
 20
8.79921
 30
0.0
 40
0
 41
0
  0
VERTEX
  8
0
 10
0.290093
 20
8.80106
 30
0.0
 40
0
 41
0
  0
VERTEX
  8
0
 10
0.29031
 20
8.80106
 30
0.0
 40
0
 41
0
  0
VERTEX
  8
0
 10
0.290201
 20
8.80083
 30
0.0
 40
0
 41
0
  0
VERTEX
  8
0
 10
0.290907
 20
8.79981
 30
0.0
 40
0
 41
0
  0
VERTEX
  8
0
 10
0.293403
 20
8.80171
 30
0.0
 40
0
 41
0
  0
VERTEX
  8
0
 10
0.293782
 20
8.80171
 30
0.0
 40
0
 41
0
  0
VERTEX
  8
0
 10
0.293674
 20
8.80154
 30
0.0
 40
0
 41
0
  0
VERTEX
  8
0
 10
0.295031
 20
8.80018
 30
0.0
 40
0
 41
0
  0
VERTEX
  8
0
 10
0.298286
 20
8.80192
 30
0.0
 40
0
 41
0
  0
VERTEX
  8
0
 10
0.299425
 20
8.80192
 30
0.0
 40
0
 41
0
  0
VERTEX
  8
0
 10
0.299425
 20
8.80192
 30
0.0
 40
0
 41
0
  0
VERTEX
  8
0
 10
0.304471
 20
8.80176
 30
0.0
 40
0
 41
0
  0
VERTEX
  8
0
 10
0.30485
 20
8.80171
 30
0.0
 40
0
 41
0
  0
VERTEX
  8
0
 10
0.304742
 20
8.80132
 30
0.0
 40
0
 41
0
  0
VERTEX
  8
0
 10
0.305881
 20
8.79975
 30
0.0
 40
0
 41
0
  0
VERTEX
  8
0
 10
0.308106
 20
8.80117
 30
0.0
 40
0
 41
0
  0
VERTEX
  8
0
 10
0.308322
 20
8.80106
 30
0.0
 40
0
 41
0
  0
VERTEX
  8
0
 10
0.308051
 20
8.80067
 30
0.0
 40
0
 41
0
  0
VERTEX
  8
0
 10
0.307997
 20
8.7991
 30
0.0
 40
0
 41
0
  0
VERTEX
  8
0
 10
0.310167
 20
8.80029
 30
0.0
 40
0
 41
0
  0
VERTEX
  8
0
 10
0.310275
 20
8.80018
 30
0.0
 40
0
 41
0
  0
VERTEX
  8
0
 10
0.309842
 20
8.79981
 30
0.0
 40
0
 41
0
  0
VERTEX
  8
0
 10
0.309082
 20
8.79813
 30
0.0
 40
0
 41
0
  0
VERTEX
  8
0
 10
0.310926
 20
8.79889
 30
0.0
 40
0
 41
0
  0
VERTEX
  8
0
 10
0.310926
 20
8.79889
 30
0.0
 40
0
 41
0
  0
VERTEX
  8
0
 10
0.310926
 20
8.72401
 30
0.0
 40
0
 41
0
  0
SEQEND
 8
0
  0
POLYLINE
  8
0
 62
     0
 66
     1
 10
0
 20
0
 30
0.0
 70
     1
 40
0
 41
0
  0
VERTEX
  8
0
 10
0.408311
 20
8.67996
 30
0.0
 40
0
 41
0
  0
VERTEX
  8
0
 10
0.408311
 20
8.67964
 30
0.0
 40
0
 41
0
  0
VERTEX
  8
0
 10
0.407769
 20
8.67876
 30
0.0
 40
0
 41
0
  0
VERTEX
  8
0
 10
0.407661
 20
8.67865
 30
0.0
 40
0
 41
0
  0
VERTEX
  8
0
 10
0.407064
 20
8.67854
 30
0.0
 40
0
 41
0
  0
VERTEX
  8
0
 10
0.405328
 20
8.678
 30
0.0
 40
0
 41
0
  0
VERTEX
  8
0
 10
0.405925
 20
8.67779
 30
0.0
 40
0
 41
0
  0
VERTEX
  8
0
 10
0.405925
 20
8.67779
 30
0.0
 40
0
 41
0
  0
VERTEX
  8
0
 10
0.405057
 20
8.67768
 30
0.0
 40
0
 41
0
  0
VERTEX
  8
0
 10
0.402778
 20
8.67719
 30
0.0
 40
0
 41
0
  0
VERTEX
  8
0
 10
0.402453
 20
8.67714
 30
0.0
 40
0
 41
0
  0
VERTEX
  8
0
 10
0.401421
 20
8.67708
 30
0.0
 40
0
 41
0
  0
VERTEX
  8
0
 10
0.398113
 20
8.67692
 30
0.0
 40
0
 41
0
  0
VERTEX
  8
0
 10
0.397026
 20
8.67692
 30
0.0
 40
0
 41
0
  0
VERTEX
  8
0
 10
0.395617
 20
8.67692
 30
0.0
 40
0
 41
0
  0
VERTEX
  8
0
 10
0.39171
 20
8.67714
 30
0.0
 40
0
 41
0
  0
VERTEX
  8
0
 10
0.391385
 20
8.67714
 30
0.0
 40
0
 41
0
  0
VERTEX
  8
0
 10
0.390517
 20
8.67714
 30
0.0
 40
0
 41
0
  0
VERTEX
  8
0
 10
0.388129
 20
8.67774
 30
0.0
 40
0
 41
0
  0
VERTEX
  8
0
 10
0.387913
 20
8.67779
 30
0.0
 40
0
 41
0
  0
VERTEX
  8
0
 10
0.387424
 20
8.67779
 30
0.0
 40
0
 41
0
  0
VERTEX
  8
0
 10
0.386068
 20
8.6786
 30
0.0
 40
0
 41
0
  0
VERTEX
  8
0
 10
0.38596
 20
8.67865
 30
0.0
 40
0
 41
0
  0
VERTEX
  8
0
 10
0.385851
 20
8.67865
 30
0.0
 40
0
 41
0
  0
VERTEX
  8
0
 10
0.385525
 20
8.67964
 30
0.0
 40
0
 41
0
  0
VERTEX
  8
0
 10
0.385525
 20
8.67996
 30
0.0
 40
0
 41
0
  0
VERTEX
  8
0
 10
0.385525
 20
8.73269
 30
0.0
 40
0
 41
0
  0
VERTEX
  8
0
 10
0.385092
 20
8.734
 30
0.0
 40
0
 41
0
  0
VERTEX
  8
0
 10
0.384983
 20
8.74431
 30
0.0
 40
0
 41
0
  0
VERTEX
  8
0
 10
0.384874
 20
8.74507
 30
0.0
 40
0
 41
0
  0
VERTEX
  8
0
 10
0.384874
 20
8.74507
 30
0.0
 40
0
 41
0
  0
VERTEX
  8
0
 10
0.383464
 20
8.74789
 30
0.0
 40
0
 41
0
  0
VERTEX
  8
0
 10
0.383137
 20
8.75256
 30
0.0
 40
0
 41
0
  0
VERTEX
  8
0
 10
0.382921
 20
8.7531
 30
0.0
 40
0
 41
0
  0
VERTEX
  8
0
 10
0.382542
 20
8.75315
 30
0.0
 40
0
 41
0
  0
VERTEX
  8
0
 10
0.380208
 20
8.75803
 30
0.0
 40
0
 41
0
  0
VERTEX
  8
0
 10
0.379883
 20
8.75831
 30
0.0
 40
0
 41
0
  0
VERTEX
  8
0
 10
0.379069
 20
8.75797
 30
0.0
 40
0
 41
0
  0
VERTEX
  8
0
 10
0.376085
 20
8.75831
 30
0.0
 40
0
 41
0
  0
VERTEX
  8
0
 10
0.375489
 20
8.76025
 30
0.0
 40
0
 41
0
  0
VERTEX
  8
0
 10
0.375325
 20
8.76025
 30
0.0
 40
0
 41
0
  0
VERTEX
  8
0
 10
0.373643
 20
8.76025
 30
0.0
 40
0
 41
0
  0
VERTEX
  8
0
 10
0.36914
 20
8.75646
 30
0.0
 40
0
 41
0
  0
VERTEX
  8
0
 10
0.368599
 20
8.75569
 30
0.0
 40
0
 41
0
  0
VERTEX
  8
0
 10
0.367893
 20
8.75424
 30
0.0
 40
0
 41
0
  0
VERTEX
  8
0
 10
0.36225
 20
8.74431
 30
0.0
 40
0
 41
0
  0
VERTEX
  8
0
 10
0.361654
 20
8.74289
 30
0.0
 40
0
 41
0
  0
VERTEX
  8
0
 10
0.361654
 20
8.67996
 30
0.0
 40
0
 41
0
  0
VERTEX
  8
0
 10
0.361382
 20
8.67985
 30
0.0
 40
0
 41
0
  0
VERTEX
  8
0
 10
0.361111
 20
8.67876
 30
0.0
 40
0
 41
0
  0
VERTEX
  8
0
 10
0.361003
 20
8.67865
 30
0.0
 40
0
 41
0
  0
VERTEX
  8
0
 10
0.360514
 20
8.67854
 30
0.0
 40
0
 41
0
  0
VERTEX
  8
0
 10
0.359483
 20
8.6779
 30
0.0
 40
0
 41
0
  0
VERTEX
  8
0
 10
0.359267
 20
8.67779
 30
0.0
 40
0
 41
0
  0
VERTEX
  8
0
 10
0.358507
 20
8.67768
 30
0.0
 40
0
 41
0
  0
VERTEX
  8
0
 10
0.356119
 20
8.67719
 30
0.0
 40
0
 41
0
  0
VERTEX
  8
0
 10
0.355794
 20
8.67714
 30
0.0
 40
0
 41
0
  0
VERTEX
  8
0
 10
0.355143
 20
8.67708
 30
0.0
 40
0
 41
0
  0
VERTEX
  8
0
 10
0.3514
 20
8.67692
 30
0.0
 40
0
 41
0
  0
VERTEX
  8
0
 10
0.350151
 20
8.67692
 30
0.0
 40
0
 41
0
  0
VERTEX
  8
0
 10
0.348796
 20
8.67692
 30
0.0
 40
0
 41
0
  0
VERTEX
  8
0
 10
0.345053
 20
8.67714
 30
0.0
 40
0
 41
0
  0
VERTEX
  8
0
 10
0.344726
 20
8.67714
 30
0.0
 40
0
 41
0
  0
VERTEX
  8
0
 10
0.343858
 20
8.67719
 30
0.0
 40
0
 41
0
  0
VERTEX
  8
0
 10
0.341254
 20
8.67774
 30
0.0
 40
0
 41
0
  0
VERTEX
  8
0
 10
0.341038
 20
8.67779
 30
0.0
 40
0
 41
0
  0
VERTEX
  8
0
 10
0.340603
 20
8.67779
 30
0.0
 40
0
 41
0
  0
VERTEX
  8
0
 10
0.339356
 20
8.6786
 30
0.0
 40
0
 41
0
  0
VERTEX
  8
0
 10
0.339301
 20
8.67865
 30
0.0
 40
0
 41
0
  0
VERTEX
  8
0
 10
0.339301
 20
8.67865
 30
0.0
 40
0
 41
0
  0
VERTEX
  8
0
 10
0.338867
 20
8.67964
 30
0.0
 40
0
 41
0
  0
VERTEX
  8
0
 10
0.338867
 20
8.67996
 30
0.0
 40
0
 41
0
  0
VERTEX
  8
0
 10
0.338867
 20
8.77111
 30
0.0
 40
0
 41
0
  0
VERTEX
  8
0
 10
0.338867
 20
8.77111
 30
0.0
 40
0
 41
0
  0
VERTEX
  8
0
 10
0.339193
 20
8.77214
 30
0.0
 40
0
 41
0
  0
VERTEX
  8
0
 10
0.339301
 20
8.77219
 30
0.0
 40
0
 41
0
  0
VERTEX
  8
0
 10
0.339301
 20
8.77219
 30
0.0
 40
0
 41
0
  0
VERTEX
  8
0
 10
0.340603
 20
8.77322
 30
0.0
 40
0
 41
0
  0
VERTEX
  8
0
 10
0.340821
 20
8.77328
 30
0.0
 40
0
 41
0
  0
VERTEX
  8
0
 10
0.340821
 20
8.773
 30
0.0
 40
0
 41
0
  0
VERTEX
  8
0
 10
0.342014
 20
8.77214
 30
0.0
 40
0
 41
0
  0
VERTEX
  8
0
 10
0.343533
 20
8.77393
 30
0.0
 40
0
 41
0
  0
VERTEX
  8
0
 10
0.344075
 20
8.77393
 30
0.0
 40
0
 41
0
  0
VERTEX
  8
0
 10
0.344021
 20
8.7736
 30
0.0
 40
0
 41
0
  0
VERTEX
  8
0
 10
0.345703
 20
8.7724
 30
0.0
 40
0
 41
0
  0
VERTEX
  8
0
 10
0.348361
 20
8.77414
 30
0.0
 40
0
 41
0
  0
VERTEX
  8
0
 10
0.349283
 20
8.77414
 30
0.0
 40
0
 41
0
  0
VERTEX
  8
0
 10
0.349283
 20
8.77414
 30
0.0
 40
0
 41
0
  0
VERTEX
  8
0
 10
0.35395
 20
8.77399
 30
0.0
 40
0
 41
0
  0
VERTEX
  8
0
 10
0.354275
 20
8.77393
 30
0.0
 40
0
 41
0
  0
VERTEX
  8
0
 10
0.354329
 20
8.77344
 30
0.0
 40
0
 41
0
  0
VERTEX
  8
0
 10
0.355794
 20
8.77208
 30
0.0
 40
0
 41
0
  0
VERTEX
  8
0
 10
0.35715
 20
8.77339
 30
0.0
 40
0
 41
0
  0
VERTEX
  8
0
 10
0.357314
 20
8.77328
 30
0.0
 40
0
 41
0
  0
VERTEX
  8
0
 10
0.357206
 20
8.77279
 30
0.0
 40
0
 41
0
  0
VERTEX
  8
0
 10
0.357801
 20
8.77115
 30
0.0
 40
0
 41
0
  0
VERTEX
  8
0
 10
0.35905
 20
8.77219
 30
0.0
 40
0
 41
0
  0
VERTEX
  8
0
 10
0.35905
 20
8.77219
 30
0.0
 40
0
 41
0
  0
VERTEX
  8
0
 10
0.358832
 20
8.77175
 30
0.0
 40
0
 41
0
  0
VERTEX
  8
0
 10
0.358561
 20
8.77024
 30
0.0
 40
0
 41
0
  0
VERTEX
  8
0
 10
0.359483
 20
8.77111
 30
0.0
 40
0
 41
0
  0
VERTEX
  8
0
 10
0.359483
 20
8.77111
 30
0.0
 40
0
 41
0
  0
VERTEX
  8
0
 10
0.359483
 20
8.75896
 30
0.0
 40
0
 41
0
  0
VERTEX
  8
0
 10
0.359864
 20
8.75922
 30
0.0
 40
0
 41
0
  0
VERTEX
  8
0
 10
0.364475
 20
8.76417
 30
0.0
 40
0
 41
0
  0
VERTEX
  8
0
 10
0.370226
 20
8.76986
 30
0.0
 40
0
 41
0
  0
VERTEX
  8
0
 10
0.371203
 20
8.77046
 30
0.0
 40
0
 41
0
  0
VERTEX
  8
0
 10
0.371799
 20
8.77024
 30
0.0
 40
0
 41
0
  0
VERTEX
  8
0
 10
0.380263
 20
8.77414
 30
0.0
 40
0
 41
0
  0
VERTEX
  8
0
 10
0.383137
 20
8.77414
 30
0.0
 40
0
 41
0
  0
VERTEX
  8
0
 10
0.386122
 20
8.77414
 30
0.0
 40
0
 41
0
  0
VERTEX
  8
0
 10
0.39426
 20
8.77165
 30
0.0
 40
0
 41
0
  0
VERTEX
  8
0
 10
0.395074
 20
8.77111
 30
0.0
 40
0
 41
0
  0
VERTEX
  8
0
 10
0.395779
 20
8.76969
 30
0.0
 40
0
 41
0
  0
VERTEX
  8
0
 10
0.402181
 20
8.76372
 30
0.0
 40
0
 41
0
  0
VERTEX
  8
0
 10
0.402669
 20
8.76286
 30
0.0
 40
0
 41
0
  0
VERTEX
  8
0
 10
0.402453
 20
8.76183
 30
0.0
 40
0
 41
0
  0
VERTEX
  8
0
 10
0.406793
 20
8.75211
 30
0.0
 40
0
 41
0
  0
VERTEX
  8
0
 10
0.40701
 20
8.75092
 30
0.0
 40
0
 41
0
  0
VERTEX
  8
0
 10
0.406142
 20
8.74946
 30
0.0
 40
0
 41
0
  0
VERTEX
  8
0
 10
0.406358
 20
8.74294
 30
0.0
 40
0
 41
0
  0
VERTEX
  8
0
 10
0.408311
 20
8.73676
 30
0.0
 40
0
 41
0
  0
VERTEX
  8
0
 10
0.408311
 20
8.73465
 30
0.0
 40
0
 41
0
  0
VERTEX
  8
0
 10
0.408311
 20
8.67996
 30
0.0
 40
0
 41
0
  0
SEQEND
 8
0
  0
POLYLINE
  8
0
 62
     0
 66
     1
 10
0
 20
0
 30
0.0
 70
     1
 40
0
 41
0
  0
VERTEX
  8
0
 10
0.524522
 20
8.67996
 30
0.0
 40
0
 41
0
  0
VERTEX
  8
0
 10
0.524522
 20
8.67964
 30
0.0
 40
0
 41
0
  0
VERTEX
  8
0
 10
0.524143
 20
8.67876
 30
0.0
 40
0
 41
0
  0
VERTEX
  8
0
 10
0.524089
 20
8.67865
 30
0.0
 40
0
 41
0
  0
VERTEX
  8
0
 10
0.523492
 20
8.67854
 30
0.0
 40
0
 41
0
  0
VERTEX
  8
0
 10
0.521756
 20
8.67785
 30
0.0
 40
0
 41
0
  0
VERTEX
  8
0
 10
0.522353
 20
8.67757
 30
0.0
 40
0
 41
0
  0
VERTEX
  8
0
 10
0.522353
 20
8.67757
 30
0.0
 40
0
 41
0
  0
VERTEX
  8
0
 10
0.521593
 20
8.67751
 30
0.0
 40
0
 41
0
  0
VERTEX
  8
0
 10
0.51964
 20
8.67719
 30
0.0
 40
0
 41
0
  0
VERTEX
  8
0
 10
0.519314
 20
8.67714
 30
0.0
 40
0
 41
0
  0
VERTEX
  8
0
 10
0.518229
 20
8.67708
 30
0.0
 40
0
 41
0
  0
VERTEX
  8
0
 10
0.515463
 20
8.67692
 30
0.0
 40
0
 41
0
  0
VERTEX
  8
0
 10
0.51454
 20
8.67692
 30
0.0
 40
0
 41
0
  0
VERTEX
  8
0
 10
0.513346
 20
8.67692
 30
0.0
 40
0
 41
0
  0
VERTEX
  8
0
 10
0.510092
 20
8.67714
 30
0.0
 40
0
 41
0
  0
VERTEX
  8
0
 10
0.509765
 20
8.67714
 30
0.0
 40
0
 41
0
  0
VERTEX
  8
0
 10
0.508951
 20
8.67714
 30
0.0
 40
0
 41
0
  0
VERTEX
  8
0
 10
0.506728
 20
8.67757
 30
0.0
 40
0
 41
0
  0
VERTEX
  8
0
 10
0.506511
 20
8.67757
 30
0.0
 40
0
 41
0
  0
VERTEX
  8
0
 10
0.506076
 20
8.67757
 30
0.0
 40
0
 41
0
  0
VERTEX
  8
0
 10
0.504883
 20
8.67854
 30
0.0
 40
0
 41
0
  0
VERTEX
  8
0
 10
0.504775
 20
8.67865
 30
0.0
 40
0
 41
0
  0
VERTEX
  8
0
 10
0.504665
 20
8.67865
 30
0.0
 40
0
 41
0
  0
VERTEX
  8
0
 10
0.50434
 20
8.67979
 30
0.0
 40
0
 41
0
  0
VERTEX
  8
0
 10
0.50434
 20
8.68018
 30
0.0
 40
0
 41
0
  0
VERTEX
  8
0
 10
0.50434
 20
8.69299
 30
0.0
 40
0
 41
0
  0
VERTEX
  8
0
 10
0.502604
 20
8.69157
 30
0.0
 40
0
 41
0
  0
VERTEX
  8
0
 10
0.491863
 20
8.68181
 30
0.0
 40
0
 41
0
  0
VERTEX
  8
0
 10
0.490668
 20
8.68104
 30
0.0
 40
0
 41
0
  0
VERTEX
  8
0
 10
0.488824
 20
8.68001
 30
0.0
 40
0
 41
0
  0
VERTEX
  8
0
 10
0.478461
 20
8.67692
 30
0.0
 40
0
 41
0
  0
VERTEX
  8
0
 10
0.475043
 20
8.67692
 30
0.0
 40
0
 41
0
  0
VERTEX
  8
0
 10
0.471138
 20
8.67692
 30
0.0
 40
0
 41
0
  0
VERTEX
  8
0
 10
0.460504
 20
8.68001
 30
0.0
 40
0
 41
0
  0
VERTEX
  8
0
 10
0.459418
 20
8.68061
 30
0.0
 40
0
 41
0
  0
VERTEX
  8
0
 10
0.457954
 20
8.68099
 30
0.0
 40
0
 41
0
  0
VERTEX
  8
0
 10
0.449436
 20
8.68978
 30
0.0
 40
0
 41
0
  0
VERTEX
  8
0
 10
0.448785
 20
8.69081
 30
0.0
 40
0
 41
0
  0
VERTEX
  8
0
 10
0.447483
 20
8.69189
 30
0.0
 40
0
 41
0
  0
VERTEX
  8
0
 10
0.443251
 20
8.70458
 30
0.0
 40
0
 41
0
  0
VERTEX
  8
0
 10
0.442925
 20
8.706
 30
0.0
 40
0
 41
0
  0
VERTEX
  8
0
 10
0.442492
 20
8.70736
 30
0.0
 40
0
 41
0
  0
VERTEX
  8
0
 10
0.441189
 20
8.72021
 30
0.0
 40
0
 41
0
  0
VERTEX
  8
0
 10
0.441189
 20
8.72444
 30
0.0
 40
0
 41
0
  0
VERTEX
  8
0
 10
0.441189
 20
8.72954
 30
0.0
 40
0
 41
0
  0
VERTEX
  8
0
 10
0.442979
 20
8.74333
 30
0.0
 40
0
 41
0
  0
VERTEX
  8
0
 10
0.44336
 20
8.74485
 30
0.0
 40
0
 41
0
  0
VERTEX
  8
0
 10
0.443576
 20
8.74539
 30
0.0
 40
0
 41
0
  0
VERTEX
  8
0
 10
0.44591
 20
8.75196
 30
0.0
 40
0
 41
0
  0
VERTEX
  8
0
 10
0.449328
 20
8.7596
 30
0.0
 40
0
 41
0
  0
VERTEX
  8
0
 10
0.450087
 20
8.76069
 30
0.0
 40
0
 41
0
  0
VERTEX
  8
0
 10
0.450087
 20
8.76178
 30
0.0
 40
0
 41
0
  0
VERTEX
  8
0
 10
0.460069
 20
8.77012
 30
0.0
 40
0
 41
0
  0
VERTEX
  8
0
 10
0.461154
 20
8.77067
 30
0.0
 40
0
 41
0
  0
VERTEX
  8
0
 10
0.461751
 20
8.7704
 30
0.0
 40
0
 41
0
  0
VERTEX
  8
0
 10
0.467611
 20
8.77197
 30
0.0
 40
0
 41
0
  0
VERTEX
  8
0
 10
0.474447
 20
8.77414
 30
0.0
 40
0
 41
0
  0
VERTEX
  8
0
 10
0.476779
 20
8.77414
 30
0.0
 40
0
 41
0
  0
VERTEX
  8
0
 10
0.480035
 20
8.77414
 30
0.0
 40
0
 41
0
  0
VERTEX
  8
0
 10
0.488824
 20
8.77126
 30
0.0
 40
0
 41
0
  0
VERTEX
  8
0
 10
0.4898
 20
8.77067
 30
0.0
 40
0
 41
0
  0
VERTEX
  8
0
 10
0.490235
 20
8.76926
 30
0.0
 40
0
 41
0
  0
VERTEX
  8
0
 10
0.494954
 20
8.76525
 30
0.0
 40
0
 41
0
  0
VERTEX
  8
0
 10
0.50076
 20
8.76183
 30
0.0
 40
0
 41
0
  0
VERTEX
  8
0
 10
0.501736
 20
8.76069
 30
0.0
 40
0
 41
0
  0
VERTEX
  8
0
 10
0.501736
 20
8.81256
 30
0.0
 40
0
 41
0
  0
VERTEX
  8
0
 10
0.501628
 20
8.81244
 30
0.0
 40
0
 41
0
  0
VERTEX
  8
0
 10
0.501193
 20
8.81207
 30
0.0
 40
0
 41
0
  0
VERTEX
  8
0
 10
0.502061
 20
8.81396
 30
0.0
 40
0
 41
0
  0
VERTEX
  8
0
 10
0.502171
 20
8.81407
 30
0.0
 40
0
 41
0
  0
VERTEX
  8
0
 10
0.502061
 20
8.81392
 30
0.0
 40
0
 41
0
  0
VERTEX
  8
0
 10
0.502115
 20
8.8131
 30
0.0
 40
0
 41
0
  0
VERTEX
  8
0
 10
0.503689
 20
8.81494
 30
0.0
 40
0
 41
0
  0
VERTEX
  8
0
 10
0.503907
 20
8.81494
 30
0.0
 40
0
 41
0
  0
VERTEX
  8
0
 10
0.503797
 20
8.81472
 30
0.0
 40
0
 41
0
  0
VERTEX
  8
0
 10
0.504665
 20
8.81369
 30
0.0
 40
0
 41
0
  0
VERTEX
  8
0
 10
0.507215
 20
8.8156
 30
0.0
 40
0
 41
0
  0
VERTEX
  8
0
 10
0.507596
 20
8.8156
 30
0.0
 40
0
 41
0
  0
VERTEX
  8
0
 10
0.507488
 20
8.81543
 30
0.0
 40
0
 41
0
  0
VERTEX
  8
0
 10
0.508681
 20
8.81407
 30
0.0
 40
0
 41
0
  0
VERTEX
  8
0
 10
0.511936
 20
8.81581
 30
0.0
 40
0
 41
0
  0
VERTEX
  8
0
 10
0.513021
 20
8.81581
 30
0.0
 40
0
 41
0
  0
VERTEX
  8
0
 10
0.514432
 20
8.81581
 30
0.0
 40
0
 41
0
  0
VERTEX
  8
0
 10
0.518283
 20
8.81565
 30
0.0
 40
0
 41
0
  0
VERTEX
  8
0
 10
0.518664
 20
8.8156
 30
0.0
 40
0
 41
0
  0
VERTEX
  8
0
 10
0.518554
 20
8.81521
 30
0.0
 40
0
 41
0
  0
VERTEX
  8
0
 10
0.519532
 20
8.81364
 30
0.0
 40
0
 41
0
  0
VERTEX
  8
0
 10
0.521701
 20
8.81506
 30
0.0
 40
0
 41
0
  0
VERTEX
  8
0
 10
0.521918
 20
8.81494
 30
0.0
 40
0
 41
0
  0
VERTEX
  8
0
 10
0.521647
 20
8.81456
 30
0.0
 40
0
 41
0
  0
VERTEX
  8
0
 10
0.521593
 20
8.81299
 30
0.0
 40
0
 41
0
  0
VERTEX
  8
0
 10
0.523762
 20
8.81418
 30
0.0
 40
0
 41
0
  0
VERTEX
  8
0
 10
0.523872
 20
8.81407
 30
0.0
 40
0
 41
0
  0
VERTEX
  8
0
 10
0.523438
 20
8.81364
 30
0.0
 40
0
 41
0
  0
VERTEX
  8
0
 10
0.522678
 20
8.81185
 30
0.0
 40
0
 41
0
  0
VERTEX
  8
0
 10
0.524522
 20
8.81256
 30
0.0
 40
0
 41
0
  0
VERTEX
  8
0
 10
0.524522
 20
8.81256
 30
0.0
 40
0
 41
0
  0
VERTEX
  8
0
 10
0.524522
 20
8.67996
 30
0.0
 40
0
 41
0
  0
SEQEND
 8
0
  0
POLYLINE
  8
0
 62
     0
 66
     1
 10
0
 20
0
 30
0.0
 70
     1
 40
0
 41
0
  0
VERTEX
  8
0
 10
0.501736
 20
8.74354
 30
0.0
 40
0
 41
0
  0
VERTEX
  8
0
 10
0.500435
 20
8.74403
 30
0.0
 40
0
 41
0
  0
VERTEX
  8
0
 10
0.495985
 20
8.7494
 30
0.0
 40
0
 41
0
  0
VERTEX
  8
0
 10
0.492512
 20
8.75526
 30
0.0
 40
0
 41
0
  0
VERTEX
  8
0
 10
0.491754
 20
8.75592
 30
0.0
 40
0
 41
0
  0
VERTEX
  8
0
 10
0.490289
 20
8.75586
 30
0.0
 40
0
 41
0
  0
VERTEX
  8
0
 10
0.485732
 20
8.75797
 30
0.0
 40
0
 41
0
  0
VERTEX
  8
0
 10
0.482747
 20
8.76025
 30
0.0
 40
0
 41
0
  0
VERTEX
  8
0
 10
0.481771
 20
8.76025
 30
0.0
 40
0
 41
0
  0
VERTEX
  8
0
 10
0.480251
 20
8.76025
 30
0.0
 40
0
 41
0
  0
VERTEX
  8
0
 10
0.475694
 20
8.7595
 30
0.0
 40
0
 41
0
  0
VERTEX
  8
0
 10
0.474067
 20
8.75776
 30
0.0
 40
0
 41
0
  0
VERTEX
  8
0
 10
0.473525
 20
8.75722
 30
0.0
 40
0
 41
0
  0
VERTEX
  8
0
 10
0.472711
 20
8.75603
 30
0.0
 40
0
 41
0
  0
VERTEX
  8
0
 10
0.469943
 20
8.7525
 30
0.0
 40
0
 41
0
  0
VERTEX
  8
0
 10
0.468425
 20
8.75022
 30
0.0
 40
0
 41
0
  0
VERTEX
  8
0
 10
0.468099
 20
8.7494
 30
0.0
 40
0
 41
0
  0
VERTEX
  8
0
 10
0.466906
 20
8.74854
 30
0.0
 40
0
 41
0
  0
VERTEX
  8
0
 10
0.464681
 20
8.74393
 30
0.0
 40
0
 41
0
  0
VERTEX
  8
0
 10
0.465224
 20
8.73958
 30
0.0
 40
0
 41
0
  0
VERTEX
  8
0
 10
0.465061
 20
8.73856
 30
0.0
 40
0
 41
0
  0
VERTEX
  8
0
 10
0.464139
 20
8.73714
 30
0.0
 40
0
 41
0
  0
VERTEX
  8
0
 10
0.463162
 20
8.73167
 30
0.0
 40
0
 41
0
  0
VERTEX
  8
0
 10
0.464193
 20
8.7276
 30
0.0
 40
0
 41
0
  0
VERTEX
  8
0
 10
0.464193
 20
8.72618
 30
0.0
 40
0
 41
0
  0
VERTEX
  8
0
 10
0.463433
 20
8.7245
 30
0.0
 40
0
 41
0
  0
VERTEX
  8
0
 10
0.463217
 20
8.71858
 30
0.0
 40
0
 41
0
  0
VERTEX
  8
0
 10
0.464735
 20
8.71403
 30
0.0
 40
0
 41
0
  0
VERTEX
  8
0
 10
0.464844
 20
8.71294
 30
0.0
 40
0
 41
0
  0
VERTEX
  8
0
 10
0.464247
 20
8.71143
 30
0.0
 40
0
 41
0
  0
VERTEX
  8
0
 10
0.464735
 20
8.70594
 30
0.0
 40
0
 41
0
  0
VERTEX
  8
0
 10
0.467339
 20
8.70253
 30
0.0
 40
0
 41
0
  0
VERTEX
  8
0
 10
0.467665
 20
8.70167
 30
0.0
 40
0
 41
0
  0
VERTEX
  8
0
 10
0.467176
 20
8.70053
 30
0.0
 40
0
 41
0
  0
VERTEX
  8
0
 10
0.468479
 20
8.69596
 30
0.0
 40
0
 41
0
  0
VERTEX
  8
0
 10
0.472547
 20
8.69439
 30
0.0
 40
0
 41
0
  0
VERTEX
  8
0
 10
0.47309
 20
8.69385
 30
0.0
 40
0
 41
0
  0
VERTEX
  8
0
 10
0.473253
 20
8.69308
 30
0.0
 40
0
 41
0
  0
VERTEX
  8
0
 10
0.479275
 20
8.69081
 30
0.0
 40
0
 41
0
  0
VERTEX
  8
0
 10
0.481337
 20
8.69081
 30
0.0
 40
0
 41
0
  0
VERTEX
  8
0
 10
0.481337
 20
8.69081
 30
0.0
 40
0
 41
0
  0
VERTEX
  8
0
 10
0.485732
 20
8.69157
 30
0.0
 40
0
 41
0
  0
VERTEX
  8
0
 10
0.486111
 20
8.69168
 30
0.0
 40
0
 41
0
  0
VERTEX
  8
0
 10
0.486219
 20
8.69179
 30
0.0
 40
0
 41
0
  0
VERTEX
  8
0
 10
0.490451
 20
8.69417
 30
0.0
 40
0
 41
0
  0
VERTEX
  8
0
 10
0.490886
 20
8.6945
 30
0.0
 40
0
 41
0
  0
VERTEX
  8
0
 10
0.490886
 20
8.6945
 30
0.0
 40
0
 41
0
  0
VERTEX
  8
0
 10
0.49566
 20
8.69937
 30
0.0
 40
0
 41
0
  0
VERTEX
  8
0
 10
0.496094
 20
8.69993
 30
0.0
 40
0
 41
0
  0
VERTEX
  8
0
 10
0.496094
 20
8.69993
 30
0.0
 40
0
 41
0
  0
VERTEX
  8
0
 10
0.497125
 20
8.70258
 30
0.0
 40
0
 41
0
  0
VERTEX
  8
0
 10
0.501193
 20
8.70742
 30
0.0
 40
0
 41
0
  0
VERTEX
  8
0
 10
0.501736
 20
8.70817
 30
0.0
 40
0
 41
0
  0
VERTEX
  8
0
 10
0.501736
 20
8.74354
 30
0.0
 40
0
 41
0
  0
SEQEND
 8
0
  0
POLYLINE
  8
0
 62
     0
 66
     1
 10
0
 20
0
 30
0.0
 70
     1
 40
0
 41
0
  0
VERTEX
  8
0
 10
0.626844
 20
8.72618
 30
0.0
 40
0
 41
0
  0
VERTEX
  8
0
 10
0.626844
 20
8.72472
 30
0.0
 40
0
 41
0
  0
VERTEX
  8
0
 10
0.625217
 20
8.72065
 30
0.0
 40
0
 41
0
  0
VERTEX
  8
0
 10
0.624892
 20
8.72032
 30
0.0
 40
0
 41
0
  0
VERTEX
  8
0
 10
0.624024
 20
8.72006
 30
0.0
 40
0
 41
0
  0
VERTEX
  8
0
 10
0.621528
 20
8.71881
 30
0.0
 40
0
 41
0
  0
VERTEX
  8
0
 10
0.621094
 20
8.71858
 30
0.0
 40
0
 41
0
  0
VERTEX
  8
0
 10
0.620985
 20
8.71858
 30
0.0
 40
0
 41
0
  0
VERTEX
  8
0
 10
0.566515
 20
8.71858
 30
0.0
 40
0
 41
0
  0
VERTEX
  8
0
 10
0.565756
 20
8.71756
 30
0.0
 40
0
 41
0
  0
VERTEX
  8
0
 10
0.567762
 20
8.70796
 30
0.0
 40
0
 41
0
  0
VERTEX
  8
0
 10
0.568033
 20
8.70708
 30
0.0
 40
0
 41
0
  0
VERTEX
  8
0
 10
0.567492
 20
8.70628
 30
0.0
 40
0
 41
0
  0
VERTEX
  8
0
 10
0.568631
 20
8.70215
 30
0.0
 40
0
 41
0
  0
VERTEX
  8
0
 10
0.572265
 20
8.69906
 30
0.0
 40
0
 41
0
  0
VERTEX
  8
0
 10
0.572808
 20
8.6984
 30
0.0
 40
0
 41
0
  0
VERTEX
  8
0
 10
0.573242
 20
8.69715
 30
0.0
 40
0
 41
0
  0
VERTEX
  8
0
 10
0.580783
 20
8.69308
 30
0.0
 40
0
 41
0
  0
VERTEX
  8
0
 10
0.581706
 20
8.69276
 30
0.0
 40
0
 41
0
  0
VERTEX
  8
0
 10
0.58176
 20
8.69228
 30
0.0
 40
0
 41
0
  0
VERTEX
  8
0
 10
0.586535
 20
8.69108
 30
0.0
 40
0
 41
0
  0
VERTEX
  8
0
 10
0.59299
 20
8.69081
 30
0.0
 40
0
 41
0
  0
VERTEX
  8
0
 10
0.595161
 20
8.69081
 30
0.0
 40
0
 41
0
  0
VERTEX
  8
0
 10
0.597928
 20
8.69081
 30
0.0
 40
0
 41
0
  0
VERTEX
  8
0
 10
0.604113
 20
8.69081
 30
0.0
 40
0
 41
0
  0
VERTEX
  8
0
 10
0.606228
 20
8.69081
 30
0.0
 40
0
 41
0
  0
VERTEX
  8
0
 10
0.608344
 20
8.69081
 30
0.0
 40
0
 41
0
  0
VERTEX
  8
0
 10
0.613064
 20
8.69081
 30
0.0
 40
0
 41
0
  0
VERTEX
  8
0
 10
0.614692
 20
8.69081
 30
0.0
 40
0
 41
0
  0
VERTEX
  8
0
 10
0.616157
 20
8.69081
 30
0.0
 40
0
 41
0
  0
VERTEX
  8
0
 10
0.619412
 20
8.69081
 30
0.0
 40
0
 41
0
  0
VERTEX
  8
0
 10
0.620551
 20
8.69081
 30
0.0
 40
0
 41
0
  0
VERTEX
  8
0
 10
0.620551
 20
8.69081
 30
0.0
 40
0
 41
0
  0
VERTEX
  8
0
 10
0.623318
 20
8.69081
 30
0.0
 40
0
 41
0
  0
VERTEX
  8
0
 10
0.62424
 20
8.69081
 30
0.0
 40
0
 41
0
  0
VERTEX
  8
0
 10
0.62424
 20
8.69081
 30
0.0
 40
0
 41
0
  0
VERTEX
  8
0
 10
0.625217
 20
8.69049
 30
0.0
 40
0
 41
0
  0
VERTEX
  8
0
 10
0.625325
 20
8.69037
 30
0.0
 40
0
 41
0
  0
VERTEX
  8
0
 10
0.624946
 20
8.68994
 30
0.0
 40
0
 41
0
  0
VERTEX
  8
0
 10
0.624294
 20
8.68832
 30
0.0
 40
0
 41
0
  0
VERTEX
  8
0
 10
0.626193
 20
8.68929
 30
0.0
 40
0
 41
0
  0
VERTEX
  8
0
 10
0.626193
 20
8.68929
 30
0.0
 40
0
 41
0
  0
VERTEX
  8
0
 10
0.62576
 20
8.68881
 30
0.0
 40
0
 41
0
  0
VERTEX
  8
0
 10
0.624838
 20
8.68696
 30
0.0
 40
0
 41
0
  0
VERTEX
  8
0
 10
0.626628
 20
8.68733
 30
0.0
 40
0
 41
0
  0
VERTEX
  8
0
 10
0.626628
 20
8.68733
 30
0.0
 40
0
 41
0
  0
VERTEX
  8
0
 10
0.626085
 20
8.68685
 30
0.0
 40
0
 41
0
  0
VERTEX
  8
0
 10
0.625054
 20
8.68457
 30
0.0
 40
0
 41
0
  0
VERTEX
  8
0
 10
0.626844
 20
8.68425
 30
0.0
 40
0
 41
0
  0
VERTEX
  8
0
 10
0.626844
 20
8.68408
 30
0.0
 40
0
 41
0
  0
VERTEX
  8
0
 10
0.626844
 20
8.68349
 30
0.0
 40
0
 41
0
  0
VERTEX
  8
0
 10
0.626628
 20
8.68192
 30
0.0
 40
0
 41
0
  0
VERTEX
  8
0
 10
0.626628
 20
8.68169
 30
0.0
 40
0
 41
0
  0
VERTEX
  8
0
 10
0.626085
 20
8.68147
 30
0.0
 40
0
 41
0
  0
VERTEX
  8
0
 10
0.624838
 20
8.68024
 30
0.0
 40
0
 41
0
  0
VERTEX
  8
0
 10
0.626411
 20
8.67996
 30
0.0
 40
0
 41
0
  0
VERTEX
  8
0
 10
0.626411
 20
8.67996
 30
0.0
 40
0
 41
0
  0
VERTEX
  8
0
 10
0.625922
 20
8.67985
 30
0.0
 40
0
 41
0
  0
VERTEX
  8
0
 10
0.624567
 20
8.67893
 30
0.0
 40
0
 41
0
  0
VERTEX
  8
0
 10
0.625976
 20
8.67865
 30
0.0
 40
0
 41
0
  0
VERTEX
  8
0
 10
0.625976
 20
8.67865
 30
0.0
 40
0
 41
0
  0
VERTEX
  8
0
 10
0.625379
 20
8.67854
 30
0.0
 40
0
 41
0
  0
VERTEX
  8
0
 10
0.623807
 20
8.67779
 30
0.0
 40
0
 41
0
  0
VERTEX
  8
0
 10
0.624892
 20
8.67736
 30
0.0
 40
0
 41
0
  0
VERTEX
  8
0
 10
0.624892
 20
8.67736
 30
0.0
 40
0
 41
0
  0
VERTEX
  8
0
 10
0.624078
 20
8.67731
 30
0.0
 40
0
 41
0
  0
VERTEX
  8
0
 10
0.622233
 20
8.67692
 30
0.0
 40
0
 41
0
  0
VERTEX
  8
0
 10
0.621636
 20
8.67692
 30
0.0
 40
0
 41
0
  0
VERTEX
  8
0
 10
0.619792
 20
8.67692
 30
0.0
 40
0
 41
0
  0
VERTEX
  8
0
 10
0.615614
 20
8.67692
 30
0.0
 40
0
 41
0
  0
VERTEX
  8
0
 10
0.614258
 20
8.67692
 30
0.0
 40
0
 41
0
  0
VERTEX
  8
0
 10
0.6116
 20
8.67692
 30
0.0
 40
0
 41
0
  0
VERTEX
  8
0
 10
0.605578
 20
8.67692
 30
0.0
 40
0
 41
0
  0
VERTEX
  8
0
 10
0.603624
 20
8.67692
 30
0.0
 40
0
 41
0
  0
VERTEX
  8
0
 10
0.600478
 20
8.67692
 30
0.0
 40
0
 41
0
  0
VERTEX
  8
0
 10
0.593371
 20
8.67692
 30
0.0
 40
0
 41
0
  0
VERTEX
  8
0
 10
0.591037
 20
8.67692
 30
0.0
 40
0
 41
0
  0
VERTEX
  8
0
 10
0.585883
 20
8.67692
 30
0.0
 40
0
 41
0
  0
VERTEX
  8
0
 10
0.571886
 20
8.67947
 30
0.0
 40
0
 41
0
  0
VERTEX
  8
0
 10
0.570421
 20
8.67996
 30
0.0
 40
0
 41
0
  0
VERTEX
  8
0
 10
0.567925
 20
8.68024
 30
0.0
 40
0
 41
0
  0
VERTEX
  8
0
 10
0.56071
 20
8.68332
 30
0.0
 40
0
 41
0
  0
VERTEX
  8
0
 10
0.55664
 20
8.68787
 30
0.0
 40
0
 41
0
  0
VERTEX
  8
0
 10
0.555664
 20
8.68886
 30
0.0
 40
0
 41
0
  0
VERTEX
  8
0
 10
0.553928
 20
8.68886
 30
0.0
 40
0
 41
0
  0
VERTEX
  8
0
 10
0.548774
 20
8.69422
 30
0.0
 40
0
 41
0
  0
VERTEX
  8
0
 10
0.547037
 20
8.70253
 30
0.0
 40
0
 41
0
  0
VERTEX
  8
0
 10
0.54655
 20
8.70404
 30
0.0
 40
0
 41
0
  0
VERTEX
  8
0
 10
0.54579
 20
8.70449
 30
0.0
 40
0
 41
0
  0
VERTEX
  8
0
 10
0.543892
 20
8.71224
 30
0.0
 40
0
 41
0
  0
VERTEX
  8
0
 10
0.543511
 20
8.7219
 30
0.0
 40
0
 41
0
  0
VERTEX
  8
0
 10
0.543511
 20
8.7251
 30
0.0
 40
0
 41
0
  0
VERTEX
  8
0
 10
0.543511
 20
8.73019
 30
0.0
 40
0
 41
0
  0
VERTEX
  8
0
 10
0.546007
 20
8.74403
 30
0.0
 40
0
 41
0
  0
VERTEX
  8
0
 10
0.54655
 20
8.7455
 30
0.0
 40
0
 41
0
  0
VERTEX
  8
0
 10
0.546767
 20
8.74593
 30
0.0
 40
0
 41
0
  0
VERTEX
  8
0
 10
0.549804
 20
8.75228
 30
0.0
 40
0
 41
0
  0
VERTEX
  8
0
 10
0.554254
 20
8.75988
 30
0.0
 40
0
 41
0
  0
VERTEX
  8
0
 10
0.555231
 20
8.7609
 30
0.0
 40
0
 41
0
  0
VERTEX
  8
0
 10
0.555176
 20
8.76193
 30
0.0
 40
0
 41
0
  0
VERTEX
  8
0
 10
0.55995
 20
8.76654
 30
0.0
 40
0
 41
0
  0
VERTEX
  8
0
 10
0.567546
 20
8.77012
 30
0.0
 40
0
 41
0
  0
VERTEX
  8
0
 10
0.568901
 20
8.77067
 30
0.0
 40
0
 41
0
  0
VERTEX
  8
0
 10
0.569282
 20
8.7704
 30
0.0
 40
0
 41
0
  0
VERTEX
  8
0
 10
0.575956
 20
8.77197
 30
0.0
 40
0
 41
0
  0
VERTEX
  8
0
 10
0.584147
 20
8.77414
 30
0.0
 40
0
 41
0
  0
VERTEX
  8
0
 10
0.586914
 20
8.77414
 30
0.0
 40
0
 41
0
  0
VERTEX
  8
0
 10
0.591471
 20
8.77414
 30
0.0
 40
0
 41
0
  0
VERTEX
  8
0
 10
0.603896
 20
8.77111
 30
0.0
 40
0
 41
0
  0
VERTEX
  8
0
 10
0.605143
 20
8.77046
 30
0.0
 40
0
 41
0
  0
VERTEX
  8
0
 10
0.605903
 20
8.76904
 30
0.0
 40
0
 41
0
  0
VERTEX
  8
0
 10
0.616699
 20
8.76193
 30
0.0
 40
0
 41
0
  0
VERTEX
  8
0
 10
0.617512
 20
8.7609
 30
0.0
 40
0
 41
0
  0
VERTEX
  8
0
 10
0.617893
 20
8.75988
 30
0.0
 40
0
 41
0
  0
VERTEX
  8
0
 10
0.624078
 20
8.74799
 30
0.0
 40
0
 41
0
  0
VERTEX
  8
0
 10
0.624457
 20
8.74658
 30
0.0
 40
0
 41
0
  0
VERTEX
  8
0
 10
0.623861
 20
8.74522
 30
0.0
 40
0
 41
0
  0
VERTEX
  8
0
 10
0.626844
 20
8.73324
 30
0.0
 40
0
 41
0
  0
VERTEX
  8
0
 10
0.626844
 20
8.72922
 30
0.0
 40
0
 41
0
  0
VERTEX
  8
0
 10
0.626844
 20
8.72618
 30
0.0
 40
0
 41
0
  0
SEQEND
 8
0
  0
POLYLINE
  8
0
 62
     0
 66
     1
 10
0
 20
0
 30
0.0
 70
     1
 40
0
 41
0
  0
VERTEX
  8
0
 10
0.604058
 20
8.73247
 30
0.0
 40
0
 41
0
  0
VERTEX
  8
0
 10
0.603678
 20
8.73465
 30
0.0
 40
0
 41
0
  0
VERTEX
  8
0
 10
0.600478
 20
8.75168
 30
0.0
 40
0
 41
0
  0
VERTEX
  8
0
 10
0.599718
 20
8.75287
 30
0.0
 40
0
 41
0
  0
VERTEX
  8
0
 10
0.59885
 20
8.75358
 30
0.0
 40
0
 41
0
  0
VERTEX
  8
0
 10
0.589085
 20
8.76025
 30
0.0
 40
0
 41
0
  0
VERTEX
  8
0
 10
0.585829
 20
8.76025
 30
0.0
 40
0
 41
0
  0
VERTEX
  8
0
 10
0.583768
 20
8.76025
 30
0.0
 40
0
 41
0
  0
VERTEX
  8
0
 10
0.578125
 20
8.75831
 30
0.0
 40
0
 41
0
  0
VERTEX
  8
0
 10
0.577582
 20
8.75786
 30
0.0
 40
0
 41
0
  0
VERTEX
  8
0
 10
0.57666
 20
8.75683
 30
0.0
 40
0
 41
0
  0
VERTEX
  8
0
 10
0.573568
 20
8.75385
 30
0.0
 40
0
 41
0
  0
VERTEX
  8
0
 10
0.572049
 20
8.75239
 30
0.0
 40
0
 41
0
  0
VERTEX
  8
0
 10
0.571724
 20
8.75179
 30
0.0
 40
0
 41
0
  0
VERTEX
  8
0
 10
0.571289
 20
8.75076
 30
0.0
 40
0
 41
0
  0
VERTEX
  8
0
 10
0.568251
 20
8.74376
 30
0.0
 40
0
 41
0
  0
VERTEX
  8
0
 10
0.568033
 20
8.74289
 30
0.0
 40
0
 41
0
  0
VERTEX
  8
0
 10
0.567111
 20
8.74154
 30
0.0
 40
0
 41
0
  0
VERTEX
  8
0
 10
0.565647
 20
8.73649
 30
0.0
 40
0
 41
0
  0
VERTEX
  8
0
 10
0.566515
 20
8.7334
 30
0.0
 40
0
 41
0
  0
VERTEX
  8
0
 10
0.566515
 20
8.73247
 30
0.0
 40
0
 41
0
  0
VERTEX
  8
0
 10
0.604058
 20
8.73247
 30
0.0
 40
0
 41
0
  0
SEQEND
 8
0
  0
POLYLINE
  8
0
 62
     0
 66
     1
 10
0
 20
0
 30
0.0
 70
     1
 40
0
 41
0
  0
VERTEX
  8
0
 10
0.696126
 20
8.76481
 30
0.0
 40
0
 41
0
  0
VERTEX
  8
0
 10
0.696126
 20
8.764
 30
0.0
 40
0
 41
0
  0
VERTEX
  8
0
 10
0.69591
 20
8.76178
 30
0.0
 40
0
 41
0
  0
VERTEX
  8
0
 10
0.69591
 20
8.76156
 30
0.0
 40
0
 41
0
  0
VERTEX
  8
0
 10
0.695367
 20
8.76144
 30
0.0
 40
0
 41
0
  0
VERTEX
  8
0
 10
0.694119
 20
8.76019
 30
0.0
 40
0
 41
0
  0
VERTEX
  8
0
 10
0.695692
 20
8.7595
 30
0.0
 40
0
 41
0
  0
VERTEX
  8
0
 10
0.695692
 20
8.75939
 30
0.0
 40
0
 41
0
  0
VERTEX
  8
0
 10
0.69515
 20
8.7589
 30
0.0
 40
0
 41
0
  0
VERTEX
  8
0
 10
0.693685
 20
8.75717
 30
0.0
 40
0
 41
0
  0
VERTEX
  8
0
 10
0.695042
 20
8.75831
 30
0.0
 40
0
 41
0
  0
VERTEX
  8
0
 10
0.695042
 20
8.75831
 30
0.0
 40
0
 41
0
  0
VERTEX
  8
0
 10
0.694499
 20
8.75786
 30
0.0
 40
0
 41
0
  0
VERTEX
  8
0
 10
0.692925
 20
8.75651
 30
0.0
 40
0
 41
0
  0
VERTEX
  8
0
 10
0.693956
 20
8.75786
 30
0.0
 40
0
 41
0
  0
VERTEX
  8
0
 10
0.693956
 20
8.75786
 30
0.0
 40
0
 41
0
  0
VERTEX
  8
0
 10
0.693414
 20
8.75743
 30
0.0
 40
0
 41
0
  0
VERTEX
  8
0
 10
0.691515
 20
8.75657
 30
0.0
 40
0
 41
0
  0
VERTEX
  8
0
 10
0.692057
 20
8.75831
 30
0.0
 40
0
 41
0
  0
VERTEX
  8
0
 10
0.692003
 20
8.75831
 30
0.0
 40
0
 41
0
  0
VERTEX
  8
0
 10
0.691569
 20
8.75792
 30
0.0
 40
0
 41
0
  0
VERTEX
  8
0
 10
0.689725
 20
8.75726
 30
0.0
 40
0
 41
0
  0
VERTEX
  8
0
 10
0.689779
 20
8.75911
 30
0.0
 40
0
 41
0
  0
VERTEX
  8
0
 10
0.689615
 20
8.75917
 30
0.0
 40
0
 41
0
  0
VERTEX
  8
0
 10
0.689236
 20
8.75874
 30
0.0
 40
0
 41
0
  0
VERTEX
  8
0
 10
0.687229
 20
8.75797
 30
0.0
 40
0
 41
0
  0
VERTEX
  8
0
 10
0.686794
 20
8.75982
 30
0.0
 40
0
 41
0
  0
VERTEX
  8
0
 10
0.686578
 20
8.75982
 30
0.0
 40
0
 41
0
  0
VERTEX
  8
0
 10
0.686253
 20
8.75933
 30
0.0
 40
0
 41
0
  0
VERTEX
  8
0
 10
0.684407
 20
8.75846
 30
0.0
 40
0
 41
0
  0
VERTEX
  8
0
 10
0.683594
 20
8.76025
 30
0.0
 40
0
 41
0
  0
VERTEX
  8
0
 10
0.683322
 20
8.76025
 30
0.0
 40
0
 41
0
  0
VERTEX
  8
0
 10
0.682183
 20
8.76025
 30
0.0
 40
0
 41
0
  0
VERTEX
  8
0
 10
0.67909
 20
8.75939
 30
0.0
 40
0
 41
0
  0
VERTEX
  8
0
 10
0.678765
 20
8.75917
 30
0.0
 40
0
 41
0
  0
VERTEX
  8
0
 10
0.677951
 20
8.75836
 30
0.0
 40
0
 41
0
  0
VERTEX
  8
0
 10
0.675185
 20
8.75618
 30
0.0
 40
0
 41
0
  0
VERTEX
  8
0
 10
0.674371
 20
8.75592
 30
0.0
 40
0
 41
0
  0
VERTEX
  8
0
 10
0.674208
 20
8.75569
 30
0.0
 40
0
 41
0
  0
VERTEX
  8
0
 10
0.673449
 20
8.75478
 30
0.0
 40
0
 41
0
  0
VERTEX
  8
0
 10
0.671007
 20
8.7519
 30
0.0
 40
0
 41
0
  0
VERTEX
  8
0
 10
0.669596
 20
8.75006
 30
0.0
 40
0
 41
0
  0
VERTEX
  8
0
 10
0.669217
 20
8.7494
 30
0.0
 40
0
 41
0
  0
VERTEX
  8
0
 10
0.668674
 20
8.74854
 30
0.0
 40
0
 41
0
  0
VERTEX
  8
0
 10
0.6639
 20
8.74083
 30
0.0
 40
0
 41
0
  0
VERTEX
  8
0
 10
0.663357
 20
8.73986
 30
0.0
 40
0
 41
0
  0
VERTEX
  8
0
 10
0.663357
 20
8.67996
 30
0.0
 40
0
 41
0
  0
VERTEX
  8
0
 10
0.663086
 20
8.67985
 30
0.0
 40
0
 41
0
  0
VERTEX
  8
0
 10
0.662815
 20
8.67876
 30
0.0
 40
0
 41
0
  0
VERTEX
  8
0
 10
0.662706
 20
8.67865
 30
0.0
 40
0
 41
0
  0
VERTEX
  8
0
 10
0.662218
 20
8.67854
 30
0.0
 40
0
 41
0
  0
VERTEX
  8
0
 10
0.661187
 20
8.6779
 30
0.0
 40
0
 41
0
  0
VERTEX
  8
0
 10
0.660969
 20
8.67779
 30
0.0
 40
0
 41
0
  0
VERTEX
  8
0
 10
0.660211
 20
8.67768
 30
0.0
 40
0
 41
0
  0
VERTEX
  8
0
 10
0.657824
 20
8.67719
 30
0.0
 40
0
 41
0
  0
VERTEX
  8
0
 10
0.657497
 20
8.67714
 30
0.0
 40
0
 41
0
  0
VERTEX
  8
0
 10
0.656847
 20
8.67708
 30
0.0
 40
0
 41
0
  0
VERTEX
  8
0
 10
0.653103
 20
8.67692
 30
0.0
 40
0
 41
0
  0
VERTEX
  8
0
 10
0.651856
 20
8.67692
 30
0.0
 40
0
 41
0
  0
VERTEX
  8
0
 10
0.650499
 20
8.67692
 30
0.0
 40
0
 41
0
  0
VERTEX
  8
0
 10
0.646756
 20
8.67714
 30
0.0
 40
0
 41
0
  0
VERTEX
  8
0
 10
0.646431
 20
8.67714
 30
0.0
 40
0
 41
0
  0
VERTEX
  8
0
 10
0.645562
 20
8.67719
 30
0.0
 40
0
 41
0
  0
VERTEX
  8
0
 10
0.642958
 20
8.67774
 30
0.0
 40
0
 41
0
  0
VERTEX
  8
0
 10
0.64274
 20
8.67779
 30
0.0
 40
0
 41
0
  0
VERTEX
  8
0
 10
0.642307
 20
8.67779
 30
0.0
 40
0
 41
0
  0
VERTEX
  8
0
 10
0.64106
 20
8.6786
 30
0.0
 40
0
 41
0
  0
VERTEX
  8
0
 10
0.641004
 20
8.67865
 30
0.0
 40
0
 41
0
  0
VERTEX
  8
0
 10
0.641004
 20
8.67865
 30
0.0
 40
0
 41
0
  0
VERTEX
  8
0
 10
0.640571
 20
8.67964
 30
0.0
 40
0
 41
0
  0
VERTEX
  8
0
 10
0.640571
 20
8.67996
 30
0.0
 40
0
 41
0
  0
VERTEX
  8
0
 10
0.640571
 20
8.77111
 30
0.0
 40
0
 41
0
  0
VERTEX
  8
0
 10
0.640571
 20
8.77111
 30
0.0
 40
0
 41
0
  0
VERTEX
  8
0
 10
0.640896
 20
8.77214
 30
0.0
 40
0
 41
0
  0
VERTEX
  8
0
 10
0.641004
 20
8.77219
 30
0.0
 40
0
 41
0
  0
VERTEX
  8
0
 10
0.641004
 20
8.77219
 30
0.0
 40
0
 41
0
  0
VERTEX
  8
0
 10
0.642307
 20
8.77322
 30
0.0
 40
0
 41
0
  0
VERTEX
  8
0
 10
0.642524
 20
8.77328
 30
0.0
 40
0
 41
0
  0
VERTEX
  8
0
 10
0.642524
 20
8.773
 30
0.0
 40
0
 41
0
  0
VERTEX
  8
0
 10
0.643718
 20
8.77214
 30
0.0
 40
0
 41
0
  0
VERTEX
  8
0
 10
0.645236
 20
8.77393
 30
0.0
 40
0
 41
0
  0
VERTEX
  8
0
 10
0.645779
 20
8.77393
 30
0.0
 40
0
 41
0
  0
VERTEX
  8
0
 10
0.645725
 20
8.7736
 30
0.0
 40
0
 41
0
  0
VERTEX
  8
0
 10
0.647407
 20
8.7724
 30
0.0
 40
0
 41
0
  0
VERTEX
  8
0
 10
0.650065
 20
8.77414
 30
0.0
 40
0
 41
0
  0
VERTEX
  8
0
 10
0.650988
 20
8.77414
 30
0.0
 40
0
 41
0
  0
VERTEX
  8
0
 10
0.650988
 20
8.77414
 30
0.0
 40
0
 41
0
  0
VERTEX
  8
0
 10
0.655653
 20
8.77399
 30
0.0
 40
0
 41
0
  0
VERTEX
  8
0
 10
0.655979
 20
8.77393
 30
0.0
 40
0
 41
0
  0
VERTEX
  8
0
 10
0.656033
 20
8.77344
 30
0.0
 40
0
 41
0
  0
VERTEX
  8
0
 10
0.657497
 20
8.77208
 30
0.0
 40
0
 41
0
  0
VERTEX
  8
0
 10
0.658854
 20
8.77339
 30
0.0
 40
0
 41
0
  0
VERTEX
  8
0
 10
0.659017
 20
8.77328
 30
0.0
 40
0
 41
0
  0
VERTEX
  8
0
 10
0.658908
 20
8.77279
 30
0.0
 40
0
 41
0
  0
VERTEX
  8
0
 10
0.659506
 20
8.77115
 30
0.0
 40
0
 41
0
  0
VERTEX
  8
0
 10
0.660753
 20
8.77219
 30
0.0
 40
0
 41
0
  0
VERTEX
  8
0
 10
0.660753
 20
8.77219
 30
0.0
 40
0
 41
0
  0
VERTEX
  8
0
 10
0.660536
 20
8.77175
 30
0.0
 40
0
 41
0
  0
VERTEX
  8
0
 10
0.660265
 20
8.77024
 30
0.0
 40
0
 41
0
  0
VERTEX
  8
0
 10
0.661187
 20
8.77111
 30
0.0
 40
0
 41
0
  0
VERTEX
  8
0
 10
0.661187
 20
8.77111
 30
0.0
 40
0
 41
0
  0
VERTEX
  8
0
 10
0.661187
 20
8.75786
 30
0.0
 40
0
 41
0
  0
VERTEX
  8
0
 10
0.661187
 20
8.75786
 30
0.0
 40
0
 41
0
  0
VERTEX
  8
0
 10
0.663683
 20
8.7609
 30
0.0
 40
0
 41
0
  0
VERTEX
  8
0
 10
0.667156
 20
8.7654
 30
0.0
 40
0
 41
0
  0
VERTEX
  8
0
 10
0.667697
 20
8.7659
 30
0.0
 40
0
 41
0
  0
VERTEX
  8
0
 10
0.667697
 20
8.7659
 30
0.0
 40
0
 41
0
  0
VERTEX
  8
0
 10
0.668946
 20
8.76807
 30
0.0
 40
0
 41
0
  0
VERTEX
  8
0
 10
0.672906
 20
8.77061
 30
0.0
 40
0
 41
0
  0
VERTEX
  8
0
 10
0.67334
 20
8.77089
 30
0.0
 40
0
 41
0
  0
VERTEX
  8
0
 10
0.67334
 20
8.77089
 30
0.0
 40
0
 41
0
  0
VERTEX
  8
0
 10
0.675293
 20
8.77121
 30
0.0
 40
0
 41
0
  0
VERTEX
  8
0
 10
0.678114
 20
8.77339
 30
0.0
 40
0
 41
0
  0
VERTEX
  8
0
 10
0.678549
 20
8.77349
 30
0.0
 40
0
 41
0
  0
VERTEX
  8
0
 10
0.678494
 20
8.77339
 30
0.0
 40
0
 41
0
  0
VERTEX
  8
0
 10
0.680012
 20
8.77235
 30
0.0
 40
0
 41
0
  0
VERTEX
  8
0
 10
0.682943
 20
8.77414
 30
0.0
 40
0
 41
0
  0
VERTEX
  8
0
 10
0.683974
 20
8.77414
 30
0.0
 40
0
 41
0
  0
VERTEX
  8
0
 10
0.684679
 20
8.77414
 30
0.0
 40
0
 41
0
  0
VERTEX
  8
0
 10
0.686524
 20
8.77399
 30
0.0
 40
0
 41
0
  0
VERTEX
  8
0
 10
0.686794
 20
8.77393
 30
0.0
 40
0
 41
0
  0
VERTEX
  8
0
 10
0.68674
 20
8.77354
 30
0.0
 40
0
 41
0
  0
VERTEX
  8
0
 10
0.687717
 20
8.77214
 30
0.0
 40
0
 41
0
  0
VERTEX
  8
0
 10
0.689561
 20
8.7736
 30
0.0
 40
0
 41
0
  0
VERTEX
  8
0
 10
0.689833
 20
8.77349
 30
0.0
 40
0
 41
0
  0
VERTEX
  8
0
 10
0.689671
 20
8.77311
 30
0.0
 40
0
 41
0
  0
VERTEX
  8
0
 10
0.690483
 20
8.77143
 30
0.0
 40
0
 41
0
  0
VERTEX
  8
0
 10
0.692654
 20
8.77274
 30
0.0
 40
0
 41
0
  0
VERTEX
  8
0
 10
0.692871
 20
8.77263
 30
0.0
 40
0
 41
0
  0
VERTEX
  8
0
 10
0.6926
 20
8.77225
 30
0.0
 40
0
 41
0
  0
VERTEX
  8
0
 10
0.692654
 20
8.77067
 30
0.0
 40
0
 41
0
  0
VERTEX
  8
0
 10
0.694715
 20
8.77186
 30
0.0
 40
0
 41
0
  0
VERTEX
  8
0
 10
0.694824
 20
8.77175
 30
0.0
 40
0
 41
0
  0
VERTEX
  8
0
 10
0.694444
 20
8.77138
 30
0.0
 40
0
 41
0
  0
VERTEX
  8
0
 10
0.693685
 20
8.76992
 30
0.0
 40
0
 41
0
  0
VERTEX
  8
0
 10
0.695475
 20
8.77089
 30
0.0
 40
0
 41
0
  0
VERTEX
  8
0
 10
0.695475
 20
8.77089
 30
0.0
 40
0
 41
0
  0
VERTEX
  8
0
 10
0.695042
 20
8.77056
 30
0.0
 40
0
 41
0
  0
VERTEX
  8
0
 10
0.694011
 20
8.76926
 30
0.0
 40
0
 41
0
  0
VERTEX
  8
0
 10
0.69591
 20
8.77001
 30
0.0
 40
0
 41
0
  0
VERTEX
  8
0
 10
0.69591
 20
8.77001
 30
0.0
 40
0
 41
0
  0
VERTEX
  8
0
 10
0.695421
 20
8.76964
 30
0.0
 40
0
 41
0
  0
VERTEX
  8
0
 10
0.694336
 20
8.76801
 30
0.0
 40
0
 41
0
  0
VERTEX
  8
0
 10
0.696126
 20
8.76807
 30
0.0
 40
0
 41
0
  0
VERTEX
  8
0
 10
0.696126
 20
8.76807
 30
0.0
 40
0
 41
0
  0
VERTEX
  8
0
 10
0.696126
 20
8.76725
 30
0.0
 40
0
 41
0
  0
VERTEX
  8
0
 10
0.696126
 20
8.76546
 30
0.0
 40
0
 41
0
  0
VERTEX
  8
0
 10
0.696126
 20
8.76481
 30
0.0
 40
0
 41
0
  0
SEQEND
 8
0
  0
POLYLINE
  8
0
 62
     0
 66
     1
 10
0
 20
0
 30
0.0
 70
     1
 40
0
 41
0
  0
VERTEX
  8
0
 10
0.833604
 20
8.67996
 30
0.0
 40
0
 41
0
  0
VERTEX
  8
0
 10
0.833604
 20
8.67964
 30
0.0
 40
0
 41
0
  0
VERTEX
  8
0
 10
0.833062
 20
8.67876
 30
0.0
 40
0
 41
0
  0
VERTEX
  8
0
 10
0.832954
 20
8.67865
 30
0.0
 40
0
 41
0
  0
VERTEX
  8
0
 10
0.832357
 20
8.67854
 30
0.0
 40
0
 41
0
  0
VERTEX
  8
0
 10
0.830621
 20
8.678
 30
0.0
 40
0
 41
0
  0
VERTEX
  8
0
 10
0.831218
 20
8.67779
 30
0.0
 40
0
 41
0
  0
VERTEX
  8
0
 10
0.831218
 20
8.67779
 30
0.0
 40
0
 41
0
  0
VERTEX
  8
0
 10
0.83035
 20
8.67768
 30
0.0
 40
0
 41
0
  0
VERTEX
  8
0
 10
0.828125
 20
8.67719
 30
0.0
 40
0
 41
0
  0
VERTEX
  8
0
 10
0.827746
 20
8.67714
 30
0.0
 40
0
 41
0
  0
VERTEX
  8
0
 10
0.826714
 20
8.67708
 30
0.0
 40
0
 41
0
  0
VERTEX
  8
0
 10
0.823406
 20
8.67692
 30
0.0
 40
0
 41
0
  0
VERTEX
  8
0
 10
0.822319
 20
8.67692
 30
0.0
 40
0
 41
0
  0
VERTEX
  8
0
 10
0.82091
 20
8.67692
 30
0.0
 40
0
 41
0
  0
VERTEX
  8
0
 10
0.817003
 20
8.67714
 30
0.0
 40
0
 41
0
  0
VERTEX
  8
0
 10
0.816678
 20
8.67714
 30
0.0
 40
0
 41
0
  0
VERTEX
  8
0
 10
0.81581
 20
8.67714
 30
0.0
 40
0
 41
0
  0
VERTEX
  8
0
 10
0.813422
 20
8.67774
 30
0.0
 40
0
 41
0
  0
VERTEX
  8
0
 10
0.813206
 20
8.67779
 30
0.0
 40
0
 41
0
  0
VERTEX
  8
0
 10
0.812717
 20
8.67779
 30
0.0
 40
0
 41
0
  0
VERTEX
  8
0
 10
0.811361
 20
8.6786
 30
0.0
 40
0
 41
0
  0
VERTEX
  8
0
 10
0.811253
 20
8.67865
 30
0.0
 40
0
 41
0
  0
VERTEX
  8
0
 10
0.811143
 20
8.67865
 30
0.0
 40
0
 41
0
  0
VERTEX
  8
0
 10
0.810818
 20
8.67964
 30
0.0
 40
0
 41
0
  0
VERTEX
  8
0
 10
0.810818
 20
8.67996
 30
0.0
 40
0
 41
0
  0
VERTEX
  8
0
 10
0.810818
 20
8.73465
 30
0.0
 40
0
 41
0
  0
VERTEX
  8
0
 10
0.810385
 20
8.73546
 30
0.0
 40
0
 41
0
  0
VERTEX
  8
0
 10
0.810275
 20
8.74431
 30
0.0
 40
0
 41
0
  0
VERTEX
  8
0
 10
0.810167
 20
8.74507
 30
0.0
 40
0
 41
0
  0
VERTEX
  8
0
 10
0.810167
 20
8.74507
 30
0.0
 40
0
 41
0
  0
VERTEX
  8
0
 10
0.808974
 20
8.74789
 30
0.0
 40
0
 41
0
  0
VERTEX
  8
0
 10
0.808649
 20
8.75256
 30
0.0
 40
0
 41
0
  0
VERTEX
  8
0
 10
0.808431
 20
8.7531
 30
0.0
 40
0
 41
0
  0
VERTEX
  8
0
 10
0.807997
 20
8.75315
 30
0.0
 40
0
 41
0
  0
VERTEX
  8
0
 10
0.805501
 20
8.75803
 30
0.0
 40
0
 41
0
  0
VERTEX
  8
0
 10
0.805176
 20
8.75831
 30
0.0
 40
0
 41
0
  0
VERTEX
  8
0
 10
0.804363
 20
8.75797
 30
0.0
 40
0
 41
0
  0
VERTEX
  8
0
 10
0.801378
 20
8.75831
 30
0.0
 40
0
 41
0
  0
VERTEX
  8
0
 10
0.800782
 20
8.76025
 30
0.0
 40
0
 41
0
  0
VERTEX
  8
0
 10
0.800618
 20
8.76025
 30
0.0
 40
0
 41
0
  0
VERTEX
  8
0
 10
0.79899
 20
8.76025
 30
0.0
 40
0
 41
0
  0
VERTEX
  8
0
 10
0.79465
 20
8.75646
 30
0.0
 40
0
 41
0
  0
VERTEX
  8
0
 10
0.794108
 20
8.75569
 30
0.0
 40
0
 41
0
  0
VERTEX
  8
0
 10
0.793349
 20
8.75424
 30
0.0
 40
0
 41
0
  0
VERTEX
  8
0
 10
0.787597
 20
8.74431
 30
0.0
 40
0
 41
0
  0
VERTEX
  8
0
 10
0.786947
 20
8.74289
 30
0.0
 40
0
 41
0
  0
VERTEX
  8
0
 10
0.786947
 20
8.67996
 30
0.0
 40
0
 41
0
  0
VERTEX
  8
0
 10
0.786675
 20
8.67985
 30
0.0
 40
0
 41
0
  0
VERTEX
  8
0
 10
0.786404
 20
8.67876
 30
0.0
 40
0
 41
0
  0
VERTEX
  8
0
 10
0.786296
 20
8.67865
 30
0.0
 40
0
 41
0
  0
VERTEX
  8
0
 10
0.785807
 20
8.67854
 30
0.0
 40
0
 41
0
  0
VERTEX
  8
0
 10
0.784776
 20
8.6779
 30
0.0
 40
0
 41
0
  0
VERTEX
  8
0
 10
0.78456
 20
8.67779
 30
0.0
 40
0
 41
0
  0
VERTEX
  8
0
 10
0.7838
 20
8.67768
 30
0.0
 40
0
 41
0
  0
VERTEX
  8
0
 10
0.78125
 20
8.67719
 30
0.0
 40
0
 41
0
  0
VERTEX
  8
0
 10
0.780871
 20
8.67714
 30
0.0
 40
0
 41
0
  0
VERTEX
  8
0
 10
0.780274
 20
8.67708
 30
0.0
 40
0
 41
0
  0
VERTEX
  8
0
 10
0.776639
 20
8.67692
 30
0.0
 40
0
 41
0
  0
VERTEX
  8
0
 10
0.775444
 20
8.67692
 30
0.0
 40
0
 41
0
  0
VERTEX
  8
0
 10
0.774089
 20
8.67692
 30
0.0
 40
0
 41
0
  0
VERTEX
  8
0
 10
0.7704
 20
8.67714
 30
0.0
 40
0
 41
0
  0
VERTEX
  8
0
 10
0.770019
 20
8.67714
 30
0.0
 40
0
 41
0
  0
VERTEX
  8
0
 10
0.769151
 20
8.67719
 30
0.0
 40
0
 41
0
  0
VERTEX
  8
0
 10
0.766547
 20
8.67774
 30
0.0
 40
0
 41
0
  0
VERTEX
  8
0
 10
0.766331
 20
8.67779
 30
0.0
 40
0
 41
0
  0
VERTEX
  8
0
 10
0.765896
 20
8.67779
 30
0.0
 40
0
 41
0
  0
VERTEX
  8
0
 10
0.764649
 20
8.6786
 30
0.0
 40
0
 41
0
  0
VERTEX
  8
0
 10
0.764594
 20
8.67865
 30
0.0
 40
0
 41
0
  0
VERTEX
  8
0
 10
0.764594
 20
8.67865
 30
0.0
 40
0
 41
0
  0
VERTEX
  8
0
 10
0.76416
 20
8.67964
 30
0.0
 40
0
 41
0
  0
VERTEX
  8
0
 10
0.76416
 20
8.67996
 30
0.0
 40
0
 41
0
  0
VERTEX
  8
0
 10
0.76416
 20
8.73465
 30
0.0
 40
0
 41
0
  0
VERTEX
  8
0
 10
0.76416
 20
8.73725
 30
0.0
 40
0
 41
0
  0
VERTEX
  8
0
 10
0.7634
 20
8.74431
 30
0.0
 40
0
 41
0
  0
VERTEX
  8
0
 10
0.763292
 20
8.74507
 30
0.0
 40
0
 41
0
  0
VERTEX
  8
0
 10
0.76275
 20
8.74496
 30
0.0
 40
0
 41
0
  0
VERTEX
  8
0
 10
0.760525
 20
8.74789
 30
0.0
 40
0
 41
0
  0
VERTEX
  8
0
 10
0.76096
 20
8.75256
 30
0.0
 40
0
 41
0
  0
VERTEX
  8
0
 10
0.760688
 20
8.7531
 30
0.0
 40
0
 41
0
  0
VERTEX
  8
0
 10
0.759819
 20
8.7531
 30
0.0
 40
0
 41
0
  0
VERTEX
  8
0
 10
0.757379
 20
8.75532
 30
0.0
 40
0
 41
0
  0
VERTEX
  8
0
 10
0.756782
 20
8.75803
 30
0.0
 40
0
 41
0
  0
VERTEX
  8
0
 10
0.756347
 20
8.75831
 30
0.0
 40
0
 41
0
  0
VERTEX
  8
0
 10
0.755751
 20
8.75792
 30
0.0
 40
0
 41
0
  0
VERTEX
  8
0
 10
0.752713
 20
8.75831
 30
0.0
 40
0
 41
0
  0
VERTEX
  8
0
 10
0.750868
 20
8.76025
 30
0.0
 40
0
 41
0
  0
VERTEX
  8
0
 10
0.750271
 20
8.76025
 30
0.0
 40
0
 41
0
  0
VERTEX
  8
0
 10
0.747993
 20
8.76025
 30
0.0
 40
0
 41
0
  0
VERTEX
  8
0
 10
0.741917
 20
8.75646
 30
0.0
 40
0
 41
0
  0
VERTEX
  8
0
 10
0.741157
 20
8.75569
 30
0.0
 40
0
 41
0
  0
VERTEX
  8
0
 10
0.739963
 20
8.75424
 30
0.0
 40
0
 41
0
  0
VERTEX
  8
0
 10
0.73226
 20
8.74431
 30
0.0
 40
0
 41
0
  0
VERTEX
  8
0
 10
0.731392
 20
8.74289
 30
0.0
 40
0
 41
0
  0
VERTEX
  8
0
 10
0.731392
 20
8.67996
 30
0.0
 40
0
 41
0
  0
VERTEX
  8
0
 10
0.731119
 20
8.67985
 30
0.0
 40
0
 41
0
  0
VERTEX
  8
0
 10
0.730849
 20
8.67876
 30
0.0
 40
0
 41
0
  0
VERTEX
  8
0
 10
0.73074
 20
8.67865
 30
0.0
 40
0
 41
0
  0
VERTEX
  8
0
 10
0.730251
 20
8.67854
 30
0.0
 40
0
 41
0
  0
VERTEX
  8
0
 10
0.729221
 20
8.6779
 30
0.0
 40
0
 41
0
  0
VERTEX
  8
0
 10
0.729004
 20
8.67779
 30
0.0
 40
0
 41
0
  0
VERTEX
  8
0
 10
0.728244
 20
8.67768
 30
0.0
 40
0
 41
0
  0
VERTEX
  8
0
 10
0.725857
 20
8.67719
 30
0.0
 40
0
 41
0
  0
VERTEX
  8
0
 10
0.725532
 20
8.67714
 30
0.0
 40
0
 41
0
  0
VERTEX
  8
0
 10
0.724881
 20
8.67708
 30
0.0
 40
0
 41
0
  0
VERTEX
  8
0
 10
0.721138
 20
8.67692
 30
0.0
 40
0
 41
0
  0
VERTEX
  8
0
 10
0.719889
 20
8.67692
 30
0.0
 40
0
 41
0
  0
VERTEX
  8
0
 10
0.718533
 20
8.67692
 30
0.0
 40
0
 41
0
  0
VERTEX
  8
0
 10
0.714789
 20
8.67714
 30
0.0
 40
0
 41
0
  0
VERTEX
  8
0
 10
0.714464
 20
8.67714
 30
0.0
 40
0
 41
0
  0
VERTEX
  8
0
 10
0.713596
 20
8.67719
 30
0.0
 40
0
 41
0
  0
VERTEX
  8
0
 10
0.710992
 20
8.67774
 30
0.0
 40
0
 41
0
  0
VERTEX
  8
0
 10
0.710775
 20
8.67779
 30
0.0
 40
0
 41
0
  0
VERTEX
  8
0
 10
0.71034
 20
8.67779
 30
0.0
 40
0
 41
0
  0
VERTEX
  8
0
 10
0.709093
 20
8.6786
 30
0.0
 40
0
 41
0
  0
VERTEX
  8
0
 10
0.709039
 20
8.67865
 30
0.0
 40
0
 41
0
  0
VERTEX
  8
0
 10
0.709039
 20
8.67865
 30
0.0
 40
0
 41
0
  0
VERTEX
  8
0
 10
0.708604
 20
8.67964
 30
0.0
 40
0
 41
0
  0
VERTEX
  8
0
 10
0.708604
 20
8.67996
 30
0.0
 40
0
 41
0
  0
VERTEX
  8
0
 10
0.708604
 20
8.77111
 30
0.0
 40
0
 41
0
  0
VERTEX
  8
0
 10
0.708604
 20
8.77111
 30
0.0
 40
0
 41
0
  0
VERTEX
  8
0
 10
0.708931
 20
8.77214
 30
0.0
 40
0
 41
0
  0
VERTEX
  8
0
 10
0.709039
 20
8.77219
 30
0.0
 40
0
 41
0
  0
VERTEX
  8
0
 10
0.709039
 20
8.77219
 30
0.0
 40
0
 41
0
  0
VERTEX
  8
0
 10
0.71034
 20
8.77322
 30
0.0
 40
0
 41
0
  0
VERTEX
  8
0
 10
0.710558
 20
8.77328
 30
0.0
 40
0
 41
0
  0
VERTEX
  8
0
 10
0.710558
 20
8.773
 30
0.0
 40
0
 41
0
  0
VERTEX
  8
0
 10
0.711751
 20
8.77214
 30
0.0
 40
0
 41
0
  0
VERTEX
  8
0
 10
0.713271
 20
8.77393
 30
0.0
 40
0
 41
0
  0
VERTEX
  8
0
 10
0.713813
 20
8.77393
 30
0.0
 40
0
 41
0
  0
VERTEX
  8
0
 10
0.713758
 20
8.7736
 30
0.0
 40
0
 41
0
  0
VERTEX
  8
0
 10
0.71544
 20
8.7724
 30
0.0
 40
0
 41
0
  0
VERTEX
  8
0
 10
0.718099
 20
8.77414
 30
0.0
 40
0
 41
0
  0
VERTEX
  8
0
 10
0.719021
 20
8.77414
 30
0.0
 40
0
 41
0
  0
VERTEX
  8
0
 10
0.719021
 20
8.77414
 30
0.0
 40
0
 41
0
  0
VERTEX
  8
0
 10
0.723687
 20
8.77399
 30
0.0
 40
0
 41
0
  0
VERTEX
  8
0
 10
0.724012
 20
8.77393
 30
0.0
 40
0
 41
0
  0
VERTEX
  8
0
 10
0.724067
 20
8.77344
 30
0.0
 40
0
 41
0
  0
VERTEX
  8
0
 10
0.725532
 20
8.77208
 30
0.0
 40
0
 41
0
  0
VERTEX
  8
0
 10
0.726887
 20
8.77339
 30
0.0
 40
0
 41
0
  0
VERTEX
  8
0
 10
0.727051
 20
8.77328
 30
0.0
 40
0
 41
0
  0
VERTEX
  8
0
 10
0.726942
 20
8.77279
 30
0.0
 40
0
 41
0
  0
VERTEX
  8
0
 10
0.727539
 20
8.77115
 30
0.0
 40
0
 41
0
  0
VERTEX
  8
0
 10
0.728787
 20
8.77219
 30
0.0
 40
0
 41
0
  0
VERTEX
  8
0
 10
0.728787
 20
8.77219
 30
0.0
 40
0
 41
0
  0
VERTEX
  8
0
 10
0.728569
 20
8.77175
 30
0.0
 40
0
 41
0
  0
VERTEX
  8
0
 10
0.728299
 20
8.77024
 30
0.0
 40
0
 41
0
  0
VERTEX
  8
0
 10
0.729221
 20
8.77111
 30
0.0
 40
0
 41
0
  0
VERTEX
  8
0
 10
0.729221
 20
8.77111
 30
0.0
 40
0
 41
0
  0
VERTEX
  8
0
 10
0.729221
 20
8.75896
 30
0.0
 40
0
 41
0
  0
VERTEX
  8
0
 10
0.729818
 20
8.75922
 30
0.0
 40
0
 41
0
  0
VERTEX
  8
0
 10
0.735406
 20
8.76417
 30
0.0
 40
0
 41
0
  0
VERTEX
  8
0
 10
0.741971
 20
8.76986
 30
0.0
 40
0
 41
0
  0
VERTEX
  8
0
 10
0.74311
 20
8.77046
 30
0.0
 40
0
 41
0
  0
VERTEX
  8
0
 10
0.743653
 20
8.77024
 30
0.0
 40
0
 41
0
  0
VERTEX
  8
0
 10
0.748969
 20
8.77197
 30
0.0
 40
0
 41
0
  0
VERTEX
  8
0
 10
0.754665
 20
8.77414
 30
0.0
 40
0
 41
0
  0
VERTEX
  8
0
 10
0.756565
 20
8.77414
 30
0.0
 40
0
 41
0
  0
VERTEX
  8
0
 10
0.758897
 20
8.77414
 30
0.0
 40
0
 41
0
  0
VERTEX
  8
0
 10
0.765192
 20
8.77306
 30
0.0
 40
0
 41
0
  0
VERTEX
  8
0
 10
0.765896
 20
8.77285
 30
0.0
 40
0
 41
0
  0
VERTEX
  8
0
 10
0.766439
 20
8.77165
 30
0.0
 40
0
 41
0
  0
VERTEX
  8
0
 10
0.772732
 20
8.76997
 30
0.0
 40
0
 41
0
  0
VERTEX
  8
0
 10
0.773275
 20
8.76958
 30
0.0
 40
0
 41
0
  0
VERTEX
  8
0
 10
0.773113
 20
8.76882
 30
0.0
 40
0
 41
0
  0
VERTEX
  8
0
 10
0.775065
 20
8.76606
 30
0.0
 40
0
 41
0
  0
VERTEX
  8
0
 10
0.778321
 20
8.76492
 30
0.0
 40
0
 41
0
  0
VERTEX
  8
0
 10
0.7787
 20
8.76437
 30
0.0
 40
0
 41
0
  0
VERTEX
  8
0
 10
0.779025
 20
8.76357
 30
0.0
 40
0
 41
0
  0
VERTEX
  8
0
 10
0.782335
 20
8.75831
 30
0.0
 40
0
 41
0
  0
VERTEX
  8
0
 10
0.782607
 20
8.75765
 30
0.0
 40
0
 41
0
  0
VERTEX
  8
0
 10
0.782661
 20
8.7576
 30
0.0
 40
0
 41
0
  0
VERTEX
  8
0
 10
0.78559
 20
8.76042
 30
0.0
 40
0
 41
0
  0
VERTEX
  8
0
 10
0.789008
 20
8.76476
 30
0.0
 40
0
 41
0
  0
VERTEX
  8
0
 10
0.789551
 20
8.76525
 30
0.0
 40
0
 41
0
  0
VERTEX
  8
0
 10
0.789551
 20
8.76525
 30
0.0
 40
0
 41
0
  0
VERTEX
  8
0
 10
0.79145
 20
8.76758
 30
0.0
 40
0
 41
0
  0
VERTEX
  8
0
 10
0.795518
 20
8.77012
 30
0.0
 40
0
 41
0
  0
VERTEX
  8
0
 10
0.796061
 20
8.77046
 30
0.0
 40
0
 41
0
  0
VERTEX
  8
0
 10
0.796061
 20
8.77046
 30
0.0
 40
0
 41
0
  0
VERTEX
  8
0
 10
0.80165
 20
8.77317
 30
0.0
 40
0
 41
0
  0
VERTEX
  8
0
 10
0.802137
 20
8.77328
 30
0.0
 40
0
 41
0
  0
VERTEX
  8
0
 10
0.802083
 20
8.77322
 30
0.0
 40
0
 41
0
  0
VERTEX
  8
0
 10
0.803819
 20
8.77229
 30
0.0
 40
0
 41
0
  0
VERTEX
  8
0
 10
0.806912
 20
8.77414
 30
0.0
 40
0
 41
0
  0
VERTEX
  8
0
 10
0.807997
 20
8.77414
 30
0.0
 40
0
 41
0
  0
VERTEX
  8
0
 10
0.810981
 20
8.77414
 30
0.0
 40
0
 41
0
  0
VERTEX
  8
0
 10
0.819119
 20
8.77165
 30
0.0
 40
0
 41
0
  0
VERTEX
  8
0
 10
0.819933
 20
8.77111
 30
0.0
 40
0
 41
0
  0
VERTEX
  8
0
 10
0.820747
 20
8.76969
 30
0.0
 40
0
 41
0
  0
VERTEX
  8
0
 10
0.827419
 20
8.76372
 30
0.0
 40
0
 41
0
  0
VERTEX
  8
0
 10
0.827963
 20
8.76286
 30
0.0
 40
0
 41
0
  0
VERTEX
  8
0
 10
0.827746
 20
8.76183
 30
0.0
 40
0
 41
0
  0
VERTEX
  8
0
 10
0.832086
 20
8.75211
 30
0.0
 40
0
 41
0
  0
VERTEX
  8
0
 10
0.832303
 20
8.75092
 30
0.0
 40
0
 41
0
  0
VERTEX
  8
0
 10
0.831435
 20
8.74946
 30
0.0
 40
0
 41
0
  0
VERTEX
  8
0
 10
0.831651
 20
8.74343
 30
0.0
 40
0
 41
0
  0
VERTEX
  8
0
 10
0.833604
 20
8.73833
 30
0.0
 40
0
 41
0
  0
VERTEX
  8
0
 10
0.833604
 20
8.7366
 30
0.0
 40
0
 41
0
  0
VERTEX
  8
0
 10
0.833604
 20
8.67996
 30
0.0
 40
0
 41
0
  0
SEQEND
 8
0
  0
POLYLINE
  8
0
 62
     0
 66
     1
 10
0
 20
0
 30
0.0
 70
     1
 40
0
 41
0
  0
VERTEX
  8
0
 10
0.9477
 20
8.7264
 30
0.0
 40
0
 41
0
  0
VERTEX
  8
0
 10
0.9477
 20
8.7214
 30
0.0
 40
0
 41
0
  0
VERTEX
  8
0
 10
0.945313
 20
8.70796
 30
0.0
 40
0
 41
0
  0
VERTEX
  8
0
 10
0.944879
 20
8.70643
 30
0.0
 40
0
 41
0
  0
VERTEX
  8
0
 10
0.943522
 20
8.70481
 30
0.0
 40
0
 41
0
  0
VERTEX
  8
0
 10
0.937717
 20
8.69194
 30
0.0
 40
0
 41
0
  0
VERTEX
  8
0
 10
0.936849
 20
8.69081
 30
0.0
 40
0
 41
0
  0
VERTEX
  8
0
 10
0.93571
 20
8.68972
 30
0.0
 40
0
 41
0
  0
VERTEX
  8
0
 10
0.924914
 20
8.68126
 30
0.0
 40
0
 41
0
  0
VERTEX
  8
0
 10
0.923611
 20
8.68061
 30
0.0
 40
0
 41
0
  0
VERTEX
  8
0
 10
0.921929
 20
8.67969
 30
0.0
 40
0
 41
0
  0
VERTEX
  8
0
 10
0.909343
 20
8.67692
 30
0.0
 40
0
 41
0
  0
VERTEX
  8
0
 10
0.905165
 20
8.67692
 30
0.0
 40
0
 41
0
  0
VERTEX
  8
0
 10
0.902289
 20
8.67692
 30
0.0
 40
0
 41
0
  0
VERTEX
  8
0
 10
0.893772
 20
8.67774
 30
0.0
 40
0
 41
0
  0
VERTEX
  8
0
 10
0.8884
 20
8.67964
 30
0.0
 40
0
 41
0
  0
VERTEX
  8
0
 10
0.887153
 20
8.68018
 30
0.0
 40
0
 41
0
  0
VERTEX
  8
0
 10
0.885146
 20
8.68044
 30
0.0
 40
0
 41
0
  0
VERTEX
  8
0
 10
0.879015
 20
8.68375
 30
0.0
 40
0
 41
0
  0
VERTEX
  8
0
 10
0.875217
 20
8.68853
 30
0.0
 40
0
 41
0
  0
VERTEX
  8
0
 10
0.874349
 20
8.68951
 30
0.0
 40
0
 41
0
  0
VERTEX
  8
0
 10
0.872885
 20
8.68951
 30
0.0
 40
0
 41
0
  0
VERTEX
  8
0
 10
0.868653
 20
8.69488
 30
0.0
 40
0
 41
0
  0
VERTEX
  8
0
 10
0.867188
 20
8.70324
 30
0.0
 40
0
 41
0
  0
VERTEX
  8
0
 10
0.866754
 20
8.70469
 30
0.0
 40
0
 41
0
  0
VERTEX
  8
0
 10
0.866157
 20
8.70622
 30
0.0
 40
0
 41
0
  0
VERTEX
  8
0
 10
0.864367
 20
8.72006
 30
0.0
 40
0
 41
0
  0
VERTEX
  8
0
 10
0.864367
 20
8.72467
 30
0.0
 40
0
 41
0
  0
VERTEX
  8
0
 10
0.864367
 20
8.72965
 30
0.0
 40
0
 41
0
  0
VERTEX
  8
0
 10
0.866536
 20
8.74311
 30
0.0
 40
0
 41
0
  0
VERTEX
  8
0
 10
0.866971
 20
8.74462
 30
0.0
 40
0
 41
0
  0
VERTEX
  8
0
 10
0.867188
 20
8.74517
 30
0.0
 40
0
 41
0
  0
VERTEX
  8
0
 10
0.8699
 20
8.75157
 30
0.0
 40
0
 41
0
  0
VERTEX
  8
0
 10
0.873915
 20
8.75917
 30
0.0
 40
0
 41
0
  0
VERTEX
  8
0
 10
0.874783
 20
8.76025
 30
0.0
 40
0
 41
0
  0
VERTEX
  8
0
 10
0.874783
 20
8.76133
 30
0.0
 40
0
 41
0
  0
VERTEX
  8
0
 10
0.886882
 20
8.76986
 30
0.0
 40
0
 41
0
  0
VERTEX
  8
0
 10
0.888237
 20
8.77046
 30
0.0
 40
0
 41
0
  0
VERTEX
  8
0
 10
0.888726
 20
8.77024
 30
0.0
 40
0
 41
0
  0
VERTEX
  8
0
 10
0.895617
 20
8.77197
 30
0.0
 40
0
 41
0
  0
VERTEX
  8
0
 10
0.904081
 20
8.77414
 30
0.0
 40
0
 41
0
  0
VERTEX
  8
0
 10
0.906901
 20
8.77414
 30
0.0
 40
0
 41
0
  0
VERTEX
  8
0
 10
0.91135
 20
8.77414
 30
0.0
 40
0
 41
0
  0
VERTEX
  8
0
 10
0.923394
 20
8.77143
 30
0.0
 40
0
 41
0
  0
VERTEX
  8
0
 10
0.924696
 20
8.77089
 30
0.0
 40
0
 41
0
  0
VERTEX
  8
0
 10
0.925564
 20
8.76947
 30
0.0
 40
0
 41
0
  0
VERTEX
  8
0
 10
0.936632
 20
8.76243
 30
0.0
 40
0
 41
0
  0
VERTEX
  8
0
 10
0.9375
 20
8.76133
 30
0.0
 40
0
 41
0
  0
VERTEX
  8
0
 10
0.938043
 20
8.76025
 30
0.0
 40
0
 41
0
  0
VERTEX
  8
0
 10
0.944661
 20
8.74789
 30
0.0
 40
0
 41
0
  0
VERTEX
  8
0
 10
0.945096
 20
8.74636
 30
0.0
 40
0
 41
0
  0
VERTEX
  8
0
 10
0.944553
 20
8.7449
 30
0.0
 40
0
 41
0
  0
VERTEX
  8
0
 10
0.9477
 20
8.73107
 30
0.0
 40
0
 41
0
  0
VERTEX
  8
0
 10
0.9477
 20
8.7264
 30
0.0
 40
0
 41
0
  0
SEQEND
 8
0
  0
POLYLINE
  8
0
 62
     0
 66
     1
 10
0
 20
0
 30
0.0
 70
     1
 40
0
 41
0
  0
VERTEX
  8
0
 10
0.924696
 20
8.72532
 30
0.0
 40
0
 41
0
  0
VERTEX
  8
0
 10
0.924262
 20
8.72597
 30
0.0
 40
0
 41
0
  0
VERTEX
  8
0
 10
0.923936
 20
8.73774
 30
0.0
 40
0
 41
0
  0
VERTEX
  8
0
 10
0.923828
 20
8.73876
 30
0.0
 40
0
 41
0
  0
VERTEX
  8
0
 10
0.92334
 20
8.73931
 30
0.0
 40
0
 41
0
  0
VERTEX
  8
0
 10
0.921115
 20
8.74908
 30
0.0
 40
0
 41
0
  0
VERTEX
  8
0
 10
0.92079
 20
8.74983
 30
0.0
 40
0
 41
0
  0
VERTEX
  8
0
 10
0.920356
 20
8.75037
 30
0.0
 40
0
 41
0
  0
VERTEX
  8
0
 10
0.915528
 20
8.757
 30
0.0
 40
0
 41
0
  0
VERTEX
  8
0
 10
0.914931
 20
8.75743
 30
0.0
 40
0
 41
0
  0
VERTEX
  8
0
 10
0.913846
 20
8.75711
 30
0.0
 40
0
 41
0
  0
VERTEX
  8
0
 10
0.909885
 20
8.75819
 30
0.0
 40
0
 41
0
  0
VERTEX
  8
0
 10
0.907118
 20
8.76025
 30
0.0
 40
0
 41
0
  0
VERTEX
  8
0
 10
0.90625
 20
8.76025
 30
0.0
 40
0
 41
0
  0
VERTEX
  8
0
 10
0.904081
 20
8.76025
 30
0.0
 40
0
 41
0
  0
VERTEX
  8
0
 10
0.898167
 20
8.75808
 30
0.0
 40
0
 41
0
  0
VERTEX
  8
0
 10
0.897569
 20
8.75765
 30
0.0
 40
0
 41
0
  0
VERTEX
  8
0
 10
0.896647
 20
8.75651
 30
0.0
 40
0
 41
0
  0
VERTEX
  8
0
 10
0.893664
 20
8.75325
 30
0.0
 40
0
 41
0
  0
VERTEX
  8
0
 10
0.892036
 20
8.75125
 30
0.0
 40
0
 41
0
  0
VERTEX
  8
0
 10
0.89171
 20
8.75049
 30
0.0
 40
0
 41
0
  0
VERTEX
  8
0
 10
0.890462
 20
8.74957
 30
0.0
 40
0
 41
0
  0
VERTEX
  8
0
 10
0.888075
 20
8.74501
 30
0.0
 40
0
 41
0
  0
VERTEX
  8
0
 10
0.888618
 20
8.74072
 30
0.0
 40
0
 41
0
  0
VERTEX
  8
0
 10
0.888456
 20
8.73964
 30
0.0
 40
0
 41
0
  0
VERTEX
  8
0
 10
0.887478
 20
8.73807
 30
0.0
 40
0
 41
0
  0
VERTEX
  8
0
 10
0.886339
 20
8.73215
 30
0.0
 40
0
 41
0
  0
VERTEX
  8
0
 10
0.887369
 20
8.72737
 30
0.0
 40
0
 41
0
  0
VERTEX
  8
0
 10
0.887369
 20
8.72575
 30
0.0
 40
0
 41
0
  0
VERTEX
  8
0
 10
0.88661
 20
8.72401
 30
0.0
 40
0
 41
0
  0
VERTEX
  8
0
 10
0.886393
 20
8.71789
 30
0.0
 40
0
 41
0
  0
VERTEX
  8
0
 10
0.888075
 20
8.71317
 30
0.0
 40
0
 41
0
  0
VERTEX
  8
0
 10
0.888237
 20
8.71208
 30
0.0
 40
0
 41
0
  0
VERTEX
  8
0
 10
0.887642
 20
8.71061
 30
0.0
 40
0
 41
0
  0
VERTEX
  8
0
 10
0.888129
 20
8.70524
 30
0.0
 40
0
 41
0
  0
VERTEX
  8
0
 10
0.890896
 20
8.70182
 30
0.0
 40
0
 41
0
  0
VERTEX
  8
0
 10
0.891276
 20
8.70101
 30
0.0
 40
0
 41
0
  0
VERTEX
  8
0
 10
0.890788
 20
8.69997
 30
0.0
 40
0
 41
0
  0
VERTEX
  8
0
 10
0.89209
 20
8.69564
 30
0.0
 40
0
 41
0
  0
VERTEX
  8
0
 10
0.896322
 20
8.69412
 30
0.0
 40
0
 41
0
  0
VERTEX
  8
0
 10
0.896918
 20
8.69362
 30
0.0
 40
0
 41
0
  0
VERTEX
  8
0
 10
0.897136
 20
8.69293
 30
0.0
 40
0
 41
0
  0
VERTEX
  8
0
 10
0.903808
 20
8.69081
 30
0.0
 40
0
 41
0
  0
VERTEX
  8
0
 10
0.906033
 20
8.69081
 30
0.0
 40
0
 41
0
  0
VERTEX
  8
0
 10
0.908094
 20
8.69081
 30
0.0
 40
0
 41
0
  0
VERTEX
  8
0
 10
0.913683
 20
8.69282
 30
0.0
 40
0
 41
0
  0
VERTEX
  8
0
 10
0.914279
 20
8.69319
 30
0.0
 40
0
 41
0
  0
VERTEX
  8
0
 10
0.914171
 20
8.69347
 30
0.0
 40
0
 41
0
  0
VERTEX
  8
0
 10
0.91976
 20
8.6996
 30
0.0
 40
0
 41
0
  0
VERTEX
  8
0
 10
0.920139
 20
8.70036
 30
0.0
 40
0
 41
0
  0
VERTEX
  8
0
 10
0.921007
 20
8.70036
 30
0.0
 40
0
 41
0
  0
VERTEX
  8
0
 10
0.923394
 20
8.71039
 30
0.0
 40
0
 41
0
  0
VERTEX
  8
0
 10
0.923611
 20
8.71143
 30
0.0
 40
0
 41
0
  0
VERTEX
  8
0
 10
0.923449
 20
8.71192
 30
0.0
 40
0
 41
0
  0
VERTEX
  8
0
 10
0.924696
 20
8.722
 30
0.0
 40
0
 41
0
  0
VERTEX
  8
0
 10
0.924696
 20
8.72532
 30
0.0
 40
0
 41
0
  0
SEQEND
 8
0
  0
POLYLINE
  8
0
 62
     0
 66
     1
 10
0
 20
0
 30
0.0
 70
     1
 40
0
 41
0
  0
VERTEX
  8
0
 10
1.03657
 20
8.67996
 30
0.0
 40
0
 41
0
  0
VERTEX
  8
0
 10
1.03657
 20
8.67964
 30
0.0
 40
0
 41
0
  0
VERTEX
  8
0
 10
1.03619
 20
8.67876
 30
0.0
 40
0
 41
0
  0
VERTEX
  8
0
 10
1.03613
 20
8.67865
 30
0.0
 40
0
 41
0
  0
VERTEX
  8
0
 10
1.03554
 20
8.6786
 30
0.0
 40
0
 41
0
  0
VERTEX
  8
0
 10
1.0338
 20
8.678
 30
0.0
 40
0
 41
0
  0
VERTEX
  8
0
 10
1.0344
 20
8.67779
 30
0.0
 40
0
 41
0
  0
VERTEX
  8
0
 10
1.0344
 20
8.67779
 30
0.0
 40
0
 41
0
  0
VERTEX
  8
0
 10
1.03358
 20
8.67774
 30
0.0
 40
0
 41
0
  0
VERTEX
  8
0
 10
1.03147
 20
8.67719
 30
0.0
 40
0
 41
0
  0
VERTEX
  8
0
 10
1.03114
 20
8.67714
 30
0.0
 40
0
 41
0
  0
VERTEX
  8
0
 10
1.03011
 20
8.67708
 30
0.0
 40
0
 41
0
  0
VERTEX
  8
0
 10
1.02713
 20
8.67692
 30
0.0
 40
0
 41
0
  0
VERTEX
  8
0
 10
1.02615
 20
8.67692
 30
0.0
 40
0
 41
0
  0
VERTEX
  8
0
 10
1.0249
 20
8.67692
 30
0.0
 40
0
 41
0
  0
VERTEX
  8
0
 10
1.02148
 20
8.67714
 30
0.0
 40
0
 41
0
  0
VERTEX
  8
0
 10
1.02116
 20
8.67714
 30
0.0
 40
0
 41
0
  0
VERTEX
  8
0
 10
1.02034
 20
8.67714
 30
0.0
 40
0
 41
0
  0
VERTEX
  8
0
 10
1.01812
 20
8.67774
 30
0.0
 40
0
 41
0
  0
VERTEX
  8
0
 10
1.0179
 20
8.67779
 30
0.0
 40
0
 41
0
  0
VERTEX
  8
0
 10
1.01752
 20
8.67779
 30
0.0
 40
0
 41
0
  0
VERTEX
  8
0
 10
1.01644
 20
8.6786
 30
0.0
 40
0
 41
0
  0
VERTEX
  8
0
 10
1.01638
 20
8.67865
 30
0.0
 40
0
 41
0
  0
VERTEX
  8
0
 10
1.01628
 20
8.67865
 30
0.0
 40
0
 41
0
  0
VERTEX
  8
0
 10
1.01595
 20
8.67964
 30
0.0
 40
0
 41
0
  0
VERTEX
  8
0
 10
1.01595
 20
8.67996
 30
0.0
 40
0
 41
0
  0
VERTEX
  8
0
 10
1.01595
 20
8.69211
 30
0.0
 40
0
 41
0
  0
VERTEX
  8
0
 10
1.01432
 20
8.69069
 30
0.0
 40
0
 41
0
  0
VERTEX
  8
0
 10
1.00499
 20
8.68104
 30
0.0
 40
0
 41
0
  0
VERTEX
  8
0
 10
1.00402
 20
8.68039
 30
0.0
 40
0
 41
0
  0
VERTEX
  8
0
 10
1.00228
 20
8.67958
 30
0.0
 40
0
 41
0
  0
VERTEX
  8
0
 10
0.997017
 20
8.67736
 30
0.0
 40
0
 41
0
  0
VERTEX
  8
0
 10
0.993435
 20
8.67692
 30
0.0
 40
0
 41
0
  0
VERTEX
  8
0
 10
0.992296
 20
8.67692
 30
0.0
 40
0
 41
0
  0
VERTEX
  8
0
 10
0.990289
 20
8.67692
 30
0.0
 40
0
 41
0
  0
VERTEX
  8
0
 10
0.984267
 20
8.67768
 30
0.0
 40
0
 41
0
  0
VERTEX
  8
0
 10
0.981119
 20
8.67947
 30
0.0
 40
0
 41
0
  0
VERTEX
  8
0
 10
0.98036
 20
8.67996
 30
0.0
 40
0
 41
0
  0
VERTEX
  8
0
 10
0.978788
 20
8.68018
 30
0.0
 40
0
 41
0
  0
VERTEX
  8
0
 10
0.974337
 20
8.68311
 30
0.0
 40
0
 41
0
  0
VERTEX
  8
0
 10
0.973036
 20
8.68718
 30
0.0
 40
0
 41
0
  0
VERTEX
  8
0
 10
0.972547
 20
8.68799
 30
0.0
 40
0
 41
0
  0
VERTEX
  8
0
 10
0.971789
 20
8.68799
 30
0.0
 40
0
 41
0
  0
VERTEX
  8
0
 10
0.969401
 20
8.69222
 30
0.0
 40
0
 41
0
  0
VERTEX
  8
0
 10
0.968642
 20
8.69883
 30
0.0
 40
0
 41
0
  0
VERTEX
  8
0
 10
0.968425
 20
8.69993
 30
0.0
 40
0
 41
0
  0
VERTEX
  8
0
 10
0.968099
 20
8.70036
 30
0.0
 40
0
 41
0
  0
VERTEX
  8
0
 10
0.967122
 20
8.71257
 30
0.0
 40
0
 41
0
  0
VERTEX
  8
0
 10
0.967122
 20
8.71664
 30
0.0
 40
0
 41
0
  0
VERTEX
  8
0
 10
0.967122
 20
8.77111
 30
0.0
 40
0
 41
0
  0
VERTEX
  8
0
 10
0.967122
 20
8.77111
 30
0.0
 40
0
 41
0
  0
VERTEX
  8
0
 10
0.967449
 20
8.77214
 30
0.0
 40
0
 41
0
  0
VERTEX
  8
0
 10
0.967557
 20
8.77219
 30
0.0
 40
0
 41
0
  0
VERTEX
  8
0
 10
0.967557
 20
8.77219
 30
0.0
 40
0
 41
0
  0
VERTEX
  8
0
 10
0.969075
 20
8.77322
 30
0.0
 40
0
 41
0
  0
VERTEX
  8
0
 10
0.969293
 20
8.77328
 30
0.0
 40
0
 41
0
  0
VERTEX
  8
0
 10
0.969293
 20
8.773
 30
0.0
 40
0
 41
0
  0
VERTEX
  8
0
 10
0.970649
 20
8.77214
 30
0.0
 40
0
 41
0
  0
VERTEX
  8
0
 10
0.972385
 20
8.77393
 30
0.0
 40
0
 41
0
  0
VERTEX
  8
0
 10
0.972982
 20
8.77393
 30
0.0
 40
0
 41
0
  0
VERTEX
  8
0
 10
0.972928
 20
8.77365
 30
0.0
 40
0
 41
0
  0
VERTEX
  8
0
 10
0.974664
 20
8.7724
 30
0.0
 40
0
 41
0
  0
VERTEX
  8
0
 10
0.977431
 20
8.77414
 30
0.0
 40
0
 41
0
  0
VERTEX
  8
0
 10
0.978407
 20
8.77414
 30
0.0
 40
0
 41
0
  0
VERTEX
  8
0
 10
0.978407
 20
8.77414
 30
0.0
 40
0
 41
0
  0
VERTEX
  8
0
 10
0.98367
 20
8.77399
 30
0.0
 40
0
 41
0
  0
VERTEX
  8
0
 10
0.98405
 20
8.77393
 30
0.0
 40
0
 41
0
  0
VERTEX
  8
0
 10
0.98405
 20
8.77344
 30
0.0
 40
0
 41
0
  0
VERTEX
  8
0
 10
0.985622
 20
8.77208
 30
0.0
 40
0
 41
0
  0
VERTEX
  8
0
 10
0.987304
 20
8.77339
 30
0.0
 40
0
 41
0
  0
VERTEX
  8
0
 10
0.987522
 20
8.77328
 30
0.0
 40
0
 41
0
  0
VERTEX
  8
0
 10
0.987358
 20
8.77285
 30
0.0
 40
0
 41
0
  0
VERTEX
  8
0
 10
0.987739
 20
8.77115
 30
0.0
 40
0
 41
0
  0
VERTEX
  8
0
 10
0.989258
 20
8.77225
 30
0.0
 40
0
 41
0
  0
VERTEX
  8
0
 10
0.989258
 20
8.77219
 30
0.0
 40
0
 41
0
  0
VERTEX
  8
0
 10
0.988986
 20
8.77175
 30
0.0
 40
0
 41
0
  0
VERTEX
  8
0
 10
0.988661
 20
8.77024
 30
0.0
 40
0
 41
0
  0
VERTEX
  8
0
 10
0.989908
 20
8.77111
 30
0.0
 40
0
 41
0
  0
VERTEX
  8
0
 10
0.989908
 20
8.77111
 30
0.0
 40
0
 41
0
  0
VERTEX
  8
0
 10
0.989908
 20
8.71858
 30
0.0
 40
0
 41
0
  0
VERTEX
  8
0
 10
0.98915
 20
8.71729
 30
0.0
 40
0
 41
0
  0
VERTEX
  8
0
 10
0.990451
 20
8.70682
 30
0.0
 40
0
 41
0
  0
VERTEX
  8
0
 10
0.99056
 20
8.706
 30
0.0
 40
0
 41
0
  0
VERTEX
  8
0
 10
0.989854
 20
8.70514
 30
0.0
 40
0
 41
0
  0
VERTEX
  8
0
 10
0.992079
 20
8.69835
 30
0.0
 40
0
 41
0
  0
VERTEX
  8
0
 10
0.992296
 20
8.69775
 30
0.0
 40
0
 41
0
  0
VERTEX
  8
0
 10
0.991863
 20
8.6971
 30
0.0
 40
0
 41
0
  0
VERTEX
  8
0
 10
0.992296
 20
8.69396
 30
0.0
 40
0
 41
0
  0
VERTEX
  8
0
 10
0.995226
 20
8.69288
 30
0.0
 40
0
 41
0
  0
VERTEX
  8
0
 10
0.995551
 20
8.69254
 30
0.0
 40
0
 41
0
  0
VERTEX
  8
0
 10
0.995822
 20
8.69211
 30
0.0
 40
0
 41
0
  0
VERTEX
  8
0
 10
0.999024
 20
8.69081
 30
0.0
 40
0
 41
0
  0
VERTEX
  8
0
 10
1.00011
 20
8.69081
 30
0.0
 40
0
 41
0
  0
VERTEX
  8
0
 10
1.00174
 20
8.69081
 30
0.0
 40
0
 41
0
  0
VERTEX
  8
0
 10
1.00608
 20
8.69428
 30
0.0
 40
0
 41
0
  0
VERTEX
  8
0
 10
1.00662
 20
8.69493
 30
0.0
 40
0
 41
0
  0
VERTEX
  8
0
 10
1.00629
 20
8.69526
 30
0.0
 40
0
 41
0
  0
VERTEX
  8
0
 10
1.00863
 20
8.69976
 30
0.0
 40
0
 41
0
  0
VERTEX
  8
0
 10
1.01313
 20
8.70617
 30
0.0
 40
0
 41
0
  0
VERTEX
  8
0
 10
1.01378
 20
8.70751
 30
0.0
 40
0
 41
0
  0
VERTEX
  8
0
 10
1.01378
 20
8.77111
 30
0.0
 40
0
 41
0
  0
VERTEX
  8
0
 10
1.01367
 20
8.77094
 30
0.0
 40
0
 41
0
  0
VERTEX
  8
0
 10
1.01324
 20
8.77035
 30
0.0
 40
0
 41
0
  0
VERTEX
  8
0
 10
1.01411
 20
8.77214
 30
0.0
 40
0
 41
0
  0
VERTEX
  8
0
 10
1.01421
 20
8.77219
 30
0.0
 40
0
 41
0
  0
VERTEX
  8
0
 10
1.01411
 20
8.77203
 30
0.0
 40
0
 41
0
  0
VERTEX
  8
0
 10
1.01416
 20
8.77126
 30
0.0
 40
0
 41
0
  0
VERTEX
  8
0
 10
1.01573
 20
8.77322
 30
0.0
 40
0
 41
0
  0
VERTEX
  8
0
 10
1.01595
 20
8.77328
 30
0.0
 40
0
 41
0
  0
VERTEX
  8
0
 10
1.01584
 20
8.77311
 30
0.0
 40
0
 41
0
  0
VERTEX
  8
0
 10
1.01671
 20
8.77214
 30
0.0
 40
0
 41
0
  0
VERTEX
  8
0
 10
1.01888
 20
8.77393
 30
0.0
 40
0
 41
0
  0
VERTEX
  8
0
 10
1.01964
 20
8.77393
 30
0.0
 40
0
 41
0
  0
VERTEX
  8
0
 10
1.01953
 20
8.77376
 30
0.0
 40
0
 41
0
  0
VERTEX
  8
0
 10
1.02073
 20
8.7724
 30
0.0
 40
0
 41
0
  0
VERTEX
  8
0
 10
1.02398
 20
8.77414
 30
0.0
 40
0
 41
0
  0
VERTEX
  8
0
 10
1.02507
 20
8.77414
 30
0.0
 40
0
 41
0
  0
VERTEX
  8
0
 10
1.02648
 20
8.77414
 30
0.0
 40
0
 41
0
  0
VERTEX
  8
0
 10
1.03033
 20
8.77399
 30
0.0
 40
0
 41
0
  0
VERTEX
  8
0
 10
1.03071
 20
8.77393
 30
0.0
 40
0
 41
0
  0
VERTEX
  8
0
 10
1.0306
 20
8.7736
 30
0.0
 40
0
 41
0
  0
VERTEX
  8
0
 10
1.03157
 20
8.77208
 30
0.0
 40
0
 41
0
  0
VERTEX
  8
0
 10
1.03375
 20
8.77339
 30
0.0
 40
0
 41
0
  0
VERTEX
  8
0
 10
1.03396
 20
8.77328
 30
0.0
 40
0
 41
0
  0
VERTEX
  8
0
 10
1.03369
 20
8.77289
 30
0.0
 40
0
 41
0
  0
VERTEX
  8
0
 10
1.03364
 20
8.77115
 30
0.0
 40
0
 41
0
  0
VERTEX
  8
0
 10
1.03581
 20
8.77229
 30
0.0
 40
0
 41
0
  0
VERTEX
  8
0
 10
1.03592
 20
8.77219
 30
0.0
 40
0
 41
0
  0
VERTEX
  8
0
 10
1.03554
 20
8.77181
 30
0.0
 40
0
 41
0
  0
VERTEX
  8
0
 10
1.03472
 20
8.77024
 30
0.0
 40
0
 41
0
  0
VERTEX
  8
0
 10
1.03657
 20
8.77111
 30
0.0
 40
0
 41
0
  0
VERTEX
  8
0
 10
1.03657
 20
8.77111
 30
0.0
 40
0
 41
0
  0
VERTEX
  8
0
 10
1.03657
 20
8.67996
 30
0.0
 40
0
 41
0
  0
SEQEND
 8
0
  0
POLYLINE
  8
0
 62
     0
 66
     1
 10
0
 20
0
 30
0.0
 70
     1
 40
0
 41
0
  0
VERTEX
  8
0
 10
1.13889
 20
8.67996
 30
0.0
 40
0
 41
0
  0
VERTEX
  8
0
 10
1.13889
 20
8.67964
 30
0.0
 40
0
 41
0
  0
VERTEX
  8
0
 10
1.13835
 20
8.67876
 30
0.0
 40
0
 41
0
  0
VERTEX
  8
0
 10
1.13824
 20
8.67865
 30
0.0
 40
0
 41
0
  0
VERTEX
  8
0
 10
1.13764
 20
8.67854
 30
0.0
 40
0
 41
0
  0
VERTEX
  8
0
 10
1.13591
 20
8.678
 30
0.0
 40
0
 41
0
  0
VERTEX
  8
0
 10
1.1365
 20
8.67779
 30
0.0
 40
0
 41
0
  0
VERTEX
  8
0
 10
1.1365
 20
8.67779
 30
0.0
 40
0
 41
0
  0
VERTEX
  8
0
 10
1.13563
 20
8.67768
 30
0.0
 40
0
 41
0
  0
VERTEX
  8
0
 10
1.13336
 20
8.67719
 30
0.0
 40
0
 41
0
  0
VERTEX
  8
0
 10
1.13303
 20
8.67714
 30
0.0
 40
0
 41
0
  0
VERTEX
  8
0
 10
1.132
 20
8.67708
 30
0.0
 40
0
 41
0
  0
VERTEX
  8
0
 10
1.12869
 20
8.67692
 30
0.0
 40
0
 41
0
  0
VERTEX
  8
0
 10
1.1276
 20
8.67692
 30
0.0
 40
0
 41
0
  0
VERTEX
  8
0
 10
1.12619
 20
8.67692
 30
0.0
 40
0
 41
0
  0
VERTEX
  8
0
 10
1.12229
 20
8.67714
 30
0.0
 40
0
 41
0
  0
VERTEX
  8
0
 10
1.12196
 20
8.67714
 30
0.0
 40
0
 41
0
  0
VERTEX
  8
0
 10
1.12109
 20
8.67714
 30
0.0
 40
0
 41
0
  0
VERTEX
  8
0
 10
1.11871
 20
8.67774
 30
0.0
 40
0
 41
0
  0
VERTEX
  8
0
 10
1.11849
 20
8.67779
 30
0.0
 40
0
 41
0
  0
VERTEX
  8
0
 10
1.118
 20
8.67779
 30
0.0
 40
0
 41
0
  0
VERTEX
  8
0
 10
1.11664
 20
8.6786
 30
0.0
 40
0
 41
0
  0
VERTEX
  8
0
 10
1.11654
 20
8.67865
 30
0.0
 40
0
 41
0
  0
VERTEX
  8
0
 10
1.11643
 20
8.67865
 30
0.0
 40
0
 41
0
  0
VERTEX
  8
0
 10
1.1161
 20
8.67964
 30
0.0
 40
0
 41
0
  0
VERTEX
  8
0
 10
1.1161
 20
8.67996
 30
0.0
 40
0
 41
0
  0
VERTEX
  8
0
 10
1.1161
 20
8.73269
 30
0.0
 40
0
 41
0
  0
VERTEX
  8
0
 10
1.11567
 20
8.734
 30
0.0
 40
0
 41
0
  0
VERTEX
  8
0
 10
1.11556
 20
8.74431
 30
0.0
 40
0
 41
0
  0
VERTEX
  8
0
 10
1.11545
 20
8.74507
 30
0.0
 40
0
 41
0
  0
VERTEX
  8
0
 10
1.11545
 20
8.74507
 30
0.0
 40
0
 41
0
  0
VERTEX
  8
0
 10
1.11404
 20
8.74789
 30
0.0
 40
0
 41
0
  0
VERTEX
  8
0
 10
1.11372
 20
8.75256
 30
0.0
 40
0
 41
0
  0
VERTEX
  8
0
 10
1.1135
 20
8.7531
 30
0.0
 40
0
 41
0
  0
VERTEX
  8
0
 10
1.11312
 20
8.75315
 30
0.0
 40
0
 41
0
  0
VERTEX
  8
0
 10
1.11079
 20
8.75803
 30
0.0
 40
0
 41
0
  0
VERTEX
  8
0
 10
1.11046
 20
8.75831
 30
0.0
 40
0
 41
0
  0
VERTEX
  8
0
 10
1.10965
 20
8.75797
 30
0.0
 40
0
 41
0
  0
VERTEX
  8
0
 10
1.10666
 20
8.75831
 30
0.0
 40
0
 41
0
  0
VERTEX
  8
0
 10
1.10607
 20
8.76025
 30
0.0
 40
0
 41
0
  0
VERTEX
  8
0
 10
1.1059
 20
8.76025
 30
0.0
 40
0
 41
0
  0
VERTEX
  8
0
 10
1.10422
 20
8.76025
 30
0.0
 40
0
 41
0
  0
VERTEX
  8
0
 10
1.09972
 20
8.75646
 30
0.0
 40
0
 41
0
  0
VERTEX
  8
0
 10
1.09918
 20
8.75569
 30
0.0
 40
0
 41
0
  0
VERTEX
  8
0
 10
1.09847
 20
8.75424
 30
0.0
 40
0
 41
0
  0
VERTEX
  8
0
 10
1.09283
 20
8.74431
 30
0.0
 40
0
 41
0
  0
VERTEX
  8
0
 10
1.09223
 20
8.74289
 30
0.0
 40
0
 41
0
  0
VERTEX
  8
0
 10
1.09223
 20
8.67996
 30
0.0
 40
0
 41
0
  0
VERTEX
  8
0
 10
1.09196
 20
8.67985
 30
0.0
 40
0
 41
0
  0
VERTEX
  8
0
 10
1.09169
 20
8.67876
 30
0.0
 40
0
 41
0
  0
VERTEX
  8
0
 10
1.09158
 20
8.67865
 30
0.0
 40
0
 41
0
  0
VERTEX
  8
0
 10
1.09109
 20
8.67854
 30
0.0
 40
0
 41
0
  0
VERTEX
  8
0
 10
1.09006
 20
8.6779
 30
0.0
 40
0
 41
0
  0
VERTEX
  8
0
 10
1.08984
 20
8.67779
 30
0.0
 40
0
 41
0
  0
VERTEX
  8
0
 10
1.08908
 20
8.67768
 30
0.0
 40
0
 41
0
  0
VERTEX
  8
0
 10
1.0867
 20
8.67719
 30
0.0
 40
0
 41
0
  0
VERTEX
  8
0
 10
1.08637
 20
8.67714
 30
0.0
 40
0
 41
0
  0
VERTEX
  8
0
 10
1.08572
 20
8.67708
 30
0.0
 40
0
 41
0
  0
VERTEX
  8
0
 10
1.08198
 20
8.67692
 30
0.0
 40
0
 41
0
  0
VERTEX
  8
0
 10
1.08073
 20
8.67692
 30
0.0
 40
0
 41
0
  0
VERTEX
  8
0
 10
1.07937
 20
8.67692
 30
0.0
 40
0
 41
0
  0
VERTEX
  8
0
 10
1.07563
 20
8.67714
 30
0.0
 40
0
 41
0
  0
VERTEX
  8
0
 10
1.0753
 20
8.67714
 30
0.0
 40
0
 41
0
  0
VERTEX
  8
0
 10
1.07444
 20
8.67719
 30
0.0
 40
0
 41
0
  0
VERTEX
  8
0
 10
1.07183
 20
8.67774
 30
0.0
 40
0
 41
0
  0
VERTEX
  8
0
 10
1.07162
 20
8.67779
 30
0.0
 40
0
 41
0
  0
VERTEX
  8
0
 10
1.07118
 20
8.67779
 30
0.0
 40
0
 41
0
  0
VERTEX
  8
0
 10
1.06993
 20
8.6786
 30
0.0
 40
0
 41
0
  0
VERTEX
  8
0
 10
1.06988
 20
8.67865
 30
0.0
 40
0
 41
0
  0
VERTEX
  8
0
 10
1.06988
 20
8.67865
 30
0.0
 40
0
 41
0
  0
VERTEX
  8
0
 10
1.06944
 20
8.67964
 30
0.0
 40
0
 41
0
  0
VERTEX
  8
0
 10
1.06944
 20
8.67996
 30
0.0
 40
0
 41
0
  0
VERTEX
  8
0
 10
1.06944
 20
8.77111
 30
0.0
 40
0
 41
0
  0
VERTEX
  8
0
 10
1.06944
 20
8.77111
 30
0.0
 40
0
 41
0
  0
VERTEX
  8
0
 10
1.06977
 20
8.77214
 30
0.0
 40
0
 41
0
  0
VERTEX
  8
0
 10
1.06988
 20
8.77219
 30
0.0
 40
0
 41
0
  0
VERTEX
  8
0
 10
1.06988
 20
8.77219
 30
0.0
 40
0
 41
0
  0
VERTEX
  8
0
 10
1.07118
 20
8.77322
 30
0.0
 40
0
 41
0
  0
VERTEX
  8
0
 10
1.0714
 20
8.77328
 30
0.0
 40
0
 41
0
  0
VERTEX
  8
0
 10
1.0714
 20
8.773
 30
0.0
 40
0
 41
0
  0
VERTEX
  8
0
 10
1.07259
 20
8.77214
 30
0.0
 40
0
 41
0
  0
VERTEX
  8
0
 10
1.07411
 20
8.77393
 30
0.0
 40
0
 41
0
  0
VERTEX
  8
0
 10
1.07465
 20
8.77393
 30
0.0
 40
0
 41
0
  0
VERTEX
  8
0
 10
1.0746
 20
8.7736
 30
0.0
 40
0
 41
0
  0
VERTEX
  8
0
 10
1.07628
 20
8.7724
 30
0.0
 40
0
 41
0
  0
VERTEX
  8
0
 10
1.07894
 20
8.77414
 30
0.0
 40
0
 41
0
  0
VERTEX
  8
0
 10
1.07986
 20
8.77414
 30
0.0
 40
0
 41
0
  0
VERTEX
  8
0
 10
1.07986
 20
8.77414
 30
0.0
 40
0
 41
0
  0
VERTEX
  8
0
 10
1.08453
 20
8.77399
 30
0.0
 40
0
 41
0
  0
VERTEX
  8
0
 10
1.08485
 20
8.77393
 30
0.0
 40
0
 41
0
  0
VERTEX
  8
0
 10
1.08491
 20
8.77344
 30
0.0
 40
0
 41
0
  0
VERTEX
  8
0
 10
1.08637
 20
8.77208
 30
0.0
 40
0
 41
0
  0
VERTEX
  8
0
 10
1.08773
 20
8.77339
 30
0.0
 40
0
 41
0
  0
VERTEX
  8
0
 10
1.08789
 20
8.77328
 30
0.0
 40
0
 41
0
  0
VERTEX
  8
0
 10
1.08778
 20
8.77279
 30
0.0
 40
0
 41
0
  0
VERTEX
  8
0
 10
1.08838
 20
8.77115
 30
0.0
 40
0
 41
0
  0
VERTEX
  8
0
 10
1.08963
 20
8.77219
 30
0.0
 40
0
 41
0
  0
VERTEX
  8
0
 10
1.08963
 20
8.77219
 30
0.0
 40
0
 41
0
  0
VERTEX
  8
0
 10
1.08941
 20
8.77175
 30
0.0
 40
0
 41
0
  0
VERTEX
  8
0
 10
1.08914
 20
8.77024
 30
0.0
 40
0
 41
0
  0
VERTEX
  8
0
 10
1.09006
 20
8.77111
 30
0.0
 40
0
 41
0
  0
VERTEX
  8
0
 10
1.09006
 20
8.77111
 30
0.0
 40
0
 41
0
  0
VERTEX
  8
0
 10
1.09006
 20
8.75896
 30
0.0
 40
0
 41
0
  0
VERTEX
  8
0
 10
1.09044
 20
8.75922
 30
0.0
 40
0
 41
0
  0
VERTEX
  8
0
 10
1.09505
 20
8.76417
 30
0.0
 40
0
 41
0
  0
VERTEX
  8
0
 10
1.1008
 20
8.76986
 30
0.0
 40
0
 41
0
  0
VERTEX
  8
0
 10
1.10178
 20
8.77046
 30
0.0
 40
0
 41
0
  0
VERTEX
  8
0
 10
1.10238
 20
8.77024
 30
0.0
 40
0
 41
0
  0
VERTEX
  8
0
 10
1.11084
 20
8.77414
 30
0.0
 40
0
 41
0
  0
VERTEX
  8
0
 10
1.11372
 20
8.77414
 30
0.0
 40
0
 41
0
  0
VERTEX
  8
0
 10
1.1167
 20
8.77414
 30
0.0
 40
0
 41
0
  0
VERTEX
  8
0
 10
1.12484
 20
8.77165
 30
0.0
 40
0
 41
0
  0
VERTEX
  8
0
 10
1.12565
 20
8.77111
 30
0.0
 40
0
 41
0
  0
VERTEX
  8
0
 10
1.12636
 20
8.76969
 30
0.0
 40
0
 41
0
  0
VERTEX
  8
0
 10
1.13276
 20
8.76372
 30
0.0
 40
0
 41
0
  0
VERTEX
  8
0
 10
1.13325
 20
8.76286
 30
0.0
 40
0
 41
0
  0
VERTEX
  8
0
 10
1.13303
 20
8.76183
 30
0.0
 40
0
 41
0
  0
VERTEX
  8
0
 10
1.13737
 20
8.75211
 30
0.0
 40
0
 41
0
  0
VERTEX
  8
0
 10
1.13759
 20
8.75092
 30
0.0
 40
0
 41
0
  0
VERTEX
  8
0
 10
1.13672
 20
8.74946
 30
0.0
 40
0
 41
0
  0
VERTEX
  8
0
 10
1.13694
 20
8.74294
 30
0.0
 40
0
 41
0
  0
VERTEX
  8
0
 10
1.13889
 20
8.73676
 30
0.0
 40
0
 41
0
  0
VERTEX
  8
0
 10
1.13889
 20
8.73465
 30
0.0
 40
0
 41
0
  0
VERTEX
  8
0
 10
1.13889
 20
8.67996
 30
0.0
 40
0
 41
0
  0
SEQEND
 8
0
  0
POLYLINE
  8
0
 62
     0
 66
     1
 10
0
 20
0
 30
0.0
 70
     1
 40
0
 41
0
  0
VERTEX
  8
0
 10
1.21343
 20
8.68756
 30
0.0
 40
0
 41
0
  0
VERTEX
  8
0
 10
1.21343
 20
8.68642
 30
0.0
 40
0
 41
0
  0
VERTEX
  8
0
 10
1.21305
 20
8.68332
 30
0.0
 40
0
 41
0
  0
VERTEX
  8
0
 10
1.213
 20
8.683
 30
0.0
 40
0
 41
0
  0
VERTEX
  8
0
 10
1.21235
 20
8.68257
 30
0.0
 40
0
 41
0
  0
VERTEX
  8
0
 10
1.21072
 20
8.68072
 30
0.0
 40
0
 41
0
  0
VERTEX
  8
0
 10
1.2117
 20
8.68039
 30
0.0
 40
0
 41
0
  0
VERTEX
  8
0
 10
1.2117
 20
8.68039
 30
0.0
 40
0
 41
0
  0
VERTEX
  8
0
 10
1.21105
 20
8.68018
 30
0.0
 40
0
 41
0
  0
VERTEX
  8
0
 10
1.20926
 20
8.67931
 30
0.0
 40
0
 41
0
  0
VERTEX
  8
0
 10
1.20953
 20
8.6791
 30
0.0
 40
0
 41
0
  0
VERTEX
  8
0
 10
1.20953
 20
8.6791
 30
0.0
 40
0
 41
0
  0
VERTEX
  8
0
 10
1.20866
 20
8.67888
 30
0.0
 40
0
 41
0
  0
VERTEX
  8
0
 10
1.20638
 20
8.67811
 30
0.0
 40
0
 41
0
  0
VERTEX
  8
0
 10
1.20605
 20
8.678
 30
0.0
 40
0
 41
0
  0
VERTEX
  8
0
 10
1.20519
 20
8.67785
 30
0.0
 40
0
 41
0
  0
VERTEX
  8
0
 10
1.20209
 20
8.67725
 30
0.0
 40
0
 41
0
  0
VERTEX
  8
0
 10
1.20171
 20
8.67714
 30
0.0
 40
0
 41
0
  0
VERTEX
  8
0
 10
1.20117
 20
8.67708
 30
0.0
 40
0
 41
0
  0
VERTEX
  8
0
 10
1.1983
 20
8.67692
 30
0.0
 40
0
 41
0
  0
VERTEX
  8
0
 10
1.19737
 20
8.67692
 30
0.0
 40
0
 41
0
  0
VERTEX
  8
0
 10
1.19444
 20
8.67692
 30
0.0
 40
0
 41
0
  0
VERTEX
  8
0
 10
1.18642
 20
8.67839
 30
0.0
 40
0
 41
0
  0
VERTEX
  8
0
 10
1.18566
 20
8.67865
 30
0.0
 40
0
 41
0
  0
VERTEX
  8
0
 10
1.18484
 20
8.67888
 30
0.0
 40
0
 41
0
  0
VERTEX
  8
0
 10
1.17817
 20
8.68371
 30
0.0
 40
0
 41
0
  0
VERTEX
  8
0
 10
1.17763
 20
8.68431
 30
0.0
 40
0
 41
0
  0
VERTEX
  8
0
 10
1.17676
 20
8.68435
 30
0.0
 40
0
 41
0
  0
VERTEX
  8
0
 10
1.17421
 20
8.68772
 30
0.0
 40
0
 41
0
  0
VERTEX
  8
0
 10
1.17329
 20
8.69293
 30
0.0
 40
0
 41
0
  0
VERTEX
  8
0
 10
1.17307
 20
8.69385
 30
0.0
 40
0
 41
0
  0
VERTEX
  8
0
 10
1.17274
 20
8.69461
 30
0.0
 40
0
 41
0
  0
VERTEX
  8
0
 10
1.17177
 20
8.70432
 30
0.0
 40
0
 41
0
  0
VERTEX
  8
0
 10
1.17177
 20
8.70751
 30
0.0
 40
0
 41
0
  0
VERTEX
  8
0
 10
1.17177
 20
8.76025
 30
0.0
 40
0
 41
0
  0
VERTEX
  8
0
 10
1.1607
 20
8.76025
 30
0.0
 40
0
 41
0
  0
VERTEX
  8
0
 10
1.16016
 20
8.76025
 30
0.0
 40
0
 41
0
  0
VERTEX
  8
0
 10
1.15864
 20
8.76156
 30
0.0
 40
0
 41
0
  0
VERTEX
  8
0
 10
1.15853
 20
8.76178
 30
0.0
 40
0
 41
0
  0
VERTEX
  8
0
 10
1.15837
 20
8.76193
 30
0.0
 40
0
 41
0
  0
VERTEX
  8
0
 10
1.15788
 20
8.7659
 30
0.0
 40
0
 41
0
  0
VERTEX
  8
0
 10
1.15788
 20
8.76719
 30
0.0
 40
0
 41
0
  0
VERTEX
  8
0
 10
1.15788
 20
8.76719
 30
0.0
 40
0
 41
0
  0
VERTEX
  8
0
 10
1.15804
 20
8.77024
 30
0.0
 40
0
 41
0
  0
VERTEX
  8
0
 10
1.15809
 20
8.77046
 30
0.0
 40
0
 41
0
  0
VERTEX
  8
0
 10
1.15809
 20
8.77046
 30
0.0
 40
0
 41
0
  0
VERTEX
  8
0
 10
1.15848
 20
8.77251
 30
0.0
 40
0
 41
0
  0
VERTEX
  8
0
 10
1.15853
 20
8.77263
 30
0.0
 40
0
 41
0
  0
VERTEX
  8
0
 10
1.15853
 20
8.77263
 30
0.0
 40
0
 41
0
  0
VERTEX
  8
0
 10
1.15929
 20
8.77371
 30
0.0
 40
0
 41
0
  0
VERTEX
  8
0
 10
1.1594
 20
8.77371
 30
0.0
 40
0
 41
0
  0
VERTEX
  8
0
 10
1.1594
 20
8.77339
 30
0.0
 40
0
 41
0
  0
VERTEX
  8
0
 10
1.15988
 20
8.77235
 30
0.0
 40
0
 41
0
  0
VERTEX
  8
0
 10
1.16064
 20
8.77414
 30
0.0
 40
0
 41
0
  0
VERTEX
  8
0
 10
1.16092
 20
8.77414
 30
0.0
 40
0
 41
0
  0
VERTEX
  8
0
 10
1.17177
 20
8.77414
 30
0.0
 40
0
 41
0
  0
VERTEX
  8
0
 10
1.17177
 20
8.79824
 30
0.0
 40
0
 41
0
  0
VERTEX
  8
0
 10
1.17177
 20
8.79824
 30
0.0
 40
0
 41
0
  0
VERTEX
  8
0
 10
1.17209
 20
8.79964
 30
0.0
 40
0
 41
0
  0
VERTEX
  8
0
 10
1.1722
 20
8.79975
 30
0.0
 40
0
 41
0
  0
VERTEX
  8
0
 10
1.1722
 20
8.79975
 30
0.0
 40
0
 41
0
  0
VERTEX
  8
0
 10
1.17372
 20
8.80078
 30
0.0
 40
0
 41
0
  0
VERTEX
  8
0
 10
1.17394
 20
8.80083
 30
0.0
 40
0
 41
0
  0
VERTEX
  8
0
 10
1.17394
 20
8.80057
 30
0.0
 40
0
 41
0
  0
VERTEX
  8
0
 10
1.17529
 20
8.79981
 30
0.0
 40
0
 41
0
  0
VERTEX
  8
0
 10
1.17725
 20
8.80171
 30
0.0
 40
0
 41
0
  0
VERTEX
  8
0
 10
1.17763
 20
8.80171
 30
0.0
 40
0
 41
0
  0
VERTEX
  8
0
 10
1.17757
 20
8.80143
 30
0.0
 40
0
 41
0
  0
VERTEX
  8
0
 10
1.17931
 20
8.80018
 30
0.0
 40
0
 41
0
  0
VERTEX
  8
0
 10
1.18207
 20
8.80192
 30
0.0
 40
0
 41
0
  0
VERTEX
  8
0
 10
1.18305
 20
8.80192
 30
0.0
 40
0
 41
0
  0
VERTEX
  8
0
 10
1.18305
 20
8.80192
 30
0.0
 40
0
 41
0
  0
VERTEX
  8
0
 10
1.18831
 20
8.80176
 30
0.0
 40
0
 41
0
  0
VERTEX
  8
0
 10
1.18869
 20
8.80171
 30
0.0
 40
0
 41
0
  0
VERTEX
  8
0
 10
1.18869
 20
8.80122
 30
0.0
 40
0
 41
0
  0
VERTEX
  8
0
 10
1.19027
 20
8.79969
 30
0.0
 40
0
 41
0
  0
VERTEX
  8
0
 10
1.19195
 20
8.80094
 30
0.0
 40
0
 41
0
  0
VERTEX
  8
0
 10
1.19217
 20
8.80083
 30
0.0
 40
0
 41
0
  0
VERTEX
  8
0
 10
1.192
 20
8.8004
 30
0.0
 40
0
 41
0
  0
VERTEX
  8
0
 10
1.19238
 20
8.79878
 30
0.0
 40
0
 41
0
  0
VERTEX
  8
0
 10
1.19385
 20
8.79981
 30
0.0
 40
0
 41
0
  0
VERTEX
  8
0
 10
1.1939
 20
8.79975
 30
0.0
 40
0
 41
0
  0
VERTEX
  8
0
 10
1.19363
 20
8.79932
 30
0.0
 40
0
 41
0
  0
VERTEX
  8
0
 10
1.19331
 20
8.79758
 30
0.0
 40
0
 41
0
  0
VERTEX
  8
0
 10
1.19455
 20
8.79824
 30
0.0
 40
0
 41
0
  0
VERTEX
  8
0
 10
1.19455
 20
8.79824
 30
0.0
 40
0
 41
0
  0
VERTEX
  8
0
 10
1.19455
 20
8.77414
 30
0.0
 40
0
 41
0
  0
VERTEX
  8
0
 10
1.21105
 20
8.77414
 30
0.0
 40
0
 41
0
  0
VERTEX
  8
0
 10
1.21105
 20
8.77414
 30
0.0
 40
0
 41
0
  0
VERTEX
  8
0
 10
1.21202
 20
8.77382
 30
0.0
 40
0
 41
0
  0
VERTEX
  8
0
 10
1.21213
 20
8.77371
 30
0.0
 40
0
 41
0
  0
VERTEX
  8
0
 10
1.21175
 20
8.77328
 30
0.0
 40
0
 41
0
  0
VERTEX
  8
0
 10
1.21088
 20
8.77165
 30
0.0
 40
0
 41
0
  0
VERTEX
  8
0
 10
1.21278
 20
8.77263
 30
0.0
 40
0
 41
0
  0
VERTEX
  8
0
 10
1.21278
 20
8.77263
 30
0.0
 40
0
 41
0
  0
VERTEX
  8
0
 10
1.21229
 20
8.77214
 30
0.0
 40
0
 41
0
  0
VERTEX
  8
0
 10
1.21143
 20
8.77012
 30
0.0
 40
0
 41
0
  0
VERTEX
  8
0
 10
1.21322
 20
8.77046
 30
0.0
 40
0
 41
0
  0
VERTEX
  8
0
 10
1.21322
 20
8.77046
 30
0.0
 40
0
 41
0
  0
VERTEX
  8
0
 10
1.21267
 20
8.76997
 30
0.0
 40
0
 41
0
  0
VERTEX
  8
0
 10
1.21164
 20
8.76774
 30
0.0
 40
0
 41
0
  0
VERTEX
  8
0
 10
1.21343
 20
8.76736
 30
0.0
 40
0
 41
0
  0
VERTEX
  8
0
 10
1.21343
 20
8.76719
 30
0.0
 40
0
 41
0
  0
VERTEX
  8
0
 10
1.21343
 20
8.76585
 30
0.0
 40
0
 41
0
  0
VERTEX
  8
0
 10
1.21289
 20
8.7621
 30
0.0
 40
0
 41
0
  0
VERTEX
  8
0
 10
1.21278
 20
8.76178
 30
0.0
 40
0
 41
0
  0
VERTEX
  8
0
 10
1.21213
 20
8.76161
 30
0.0
 40
0
 41
0
  0
VERTEX
  8
0
 10
1.21034
 20
8.76047
 30
0.0
 40
0
 41
0
  0
VERTEX
  8
0
 10
1.21105
 20
8.76025
 30
0.0
 40
0
 41
0
  0
VERTEX
  8
0
 10
1.21105
 20
8.76025
 30
0.0
 40
0
 41
0
  0
VERTEX
  8
0
 10
1.19455
 20
8.76025
 30
0.0
 40
0
 41
0
  0
VERTEX
  8
0
 10
1.19455
 20
8.70969
 30
0.0
 40
0
 41
0
  0
VERTEX
  8
0
 10
1.19379
 20
8.70774
 30
0.0
 40
0
 41
0
  0
VERTEX
  8
0
 10
1.1939
 20
8.70085
 30
0.0
 40
0
 41
0
  0
VERTEX
  8
0
 10
1.19618
 20
8.6964
 30
0.0
 40
0
 41
0
  0
VERTEX
  8
0
 10
1.19651
 20
8.69558
 30
0.0
 40
0
 41
0
  0
VERTEX
  8
0
 10
1.19613
 20
8.69488
 30
0.0
 40
0
 41
0
  0
VERTEX
  8
0
 10
1.19786
 20
8.6914
 30
0.0
 40
0
 41
0
  0
VERTEX
  8
0
 10
1.2022
 20
8.69081
 30
0.0
 40
0
 41
0
  0
VERTEX
  8
0
 10
1.20367
 20
8.69081
 30
0.0
 40
0
 41
0
  0
VERTEX
  8
0
 10
1.20367
 20
8.69081
 30
0.0
 40
0
 41
0
  0
VERTEX
  8
0
 10
1.20627
 20
8.69119
 30
0.0
 40
0
 41
0
  0
VERTEX
  8
0
 10
1.20649
 20
8.69125
 30
0.0
 40
0
 41
0
  0
VERTEX
  8
0
 10
1.20649
 20
8.69125
 30
0.0
 40
0
 41
0
  0
VERTEX
  8
0
 10
1.2085
 20
8.69206
 30
0.0
 40
0
 41
0
  0
VERTEX
  8
0
 10
1.20866
 20
8.69211
 30
0.0
 40
0
 41
0
  0
VERTEX
  8
0
 10
1.20866
 20
8.69211
 30
0.0
 40
0
 41
0
  0
VERTEX
  8
0
 10
1.21029
 20
8.69314
 30
0.0
 40
0
 41
0
  0
VERTEX
  8
0
 10
1.21039
 20
8.69319
 30
0.0
 40
0
 41
0
  0
VERTEX
  8
0
 10
1.21039
 20
8.69319
 30
0.0
 40
0
 41
0
  0
VERTEX
  8
0
 10
1.2117
 20
8.69362
 30
0.0
 40
0
 41
0
  0
VERTEX
  8
0
 10
1.2117
 20
8.69362
 30
0.0
 40
0
 41
0
  0
VERTEX
  8
0
 10
1.21137
 20
8.69358
 30
0.0
 40
0
 41
0
  0
VERTEX
  8
0
 10
1.2105
 20
8.69319
 30
0.0
 40
0
 41
0
  0
VERTEX
  8
0
 10
1.21229
 20
8.69331
 30
0.0
 40
0
 41
0
  0
VERTEX
  8
0
 10
1.21235
 20
8.69319
 30
0.0
 40
0
 41
0
  0
VERTEX
  8
0
 10
1.21202
 20
8.69314
 30
0.0
 40
0
 41
0
  0
VERTEX
  8
0
 10
1.2111
 20
8.6926
 30
0.0
 40
0
 41
0
  0
VERTEX
  8
0
 10
1.21294
 20
8.69243
 30
0.0
 40
0
 41
0
  0
VERTEX
  8
0
 10
1.213
 20
8.69233
 30
0.0
 40
0
 41
0
  0
VERTEX
  8
0
 10
1.21257
 20
8.69228
 30
0.0
 40
0
 41
0
  0
VERTEX
  8
0
 10
1.21148
 20
8.69135
 30
0.0
 40
0
 41
0
  0
VERTEX
  8
0
 10
1.21322
 20
8.69065
 30
0.0
 40
0
 41
0
  0
VERTEX
  8
0
 10
1.21322
 20
8.69037
 30
0.0
 40
0
 41
0
  0
VERTEX
  8
0
 10
1.21267
 20
8.68978
 30
0.0
 40
0
 41
0
  0
VERTEX
  8
0
 10
1.21164
 20
8.68744
 30
0.0
 40
0
 41
0
  0
VERTEX
  8
0
 10
1.21343
 20
8.68756
 30
0.0
 40
0
 41
0
  0
VERTEX
  8
0
 10
1.21343
 20
8.68756
 30
0.0
 40
0
 41
0
  0
SEQEND
 8
0
  0
TEXT
  8
0
 62
     0
 10
1.21559
 20
8.67694
 30
0.0
 40
0.195
  1
 S
 50
0
  0
TEXT
  8
0
 62
     0
 10
1.3981
 20
8.67694
 30
0.0
 40
0.195
  1
ink.
 50
0
  0
TEXT
  8
0
 62
     0
 10
1.67985
 20
8.67694
 30
0.0
 40
0.195
  1
 Ov
 50
0
  0
TEXT
  8
0
 62
     0
 10
1.9905
 20
8.67694
 30
0.0
 40
0.195
  1
erall
 50
0
  0
TEXT
  8
0
 62
     0
 10
2.42897
 20
8.67694
 30
0.0
 40
0.195
  1
dimensions
 50
0
  0
TEXT
  8
0
 62
     0
 10
3.37532
 20
8.67694
 30
0.0
 40
0.195
  1
are
 50
0
  0
TEXT
  8
0
 62
     0
 10
3.67582
 20
8.67694
 30
0.0
 40
0.195
  1
31
 50
0
  0
TEXT
  8
0
 62
     0
 10
3.87244
 20
8.67694
 30
0.0
 40
0.195
  1
" 
 50
0
  0
TEXT
  8
0
 62
     0
 10
4.00417
 20
8.67694
 30
0.0
 40
0.195
  1
x 
 50
0
  0
TEXT
  8
0
 62
     0
 10
4.13899
 20
8.67694
 30
0.0
 40
0.195
  1
18" 
 50
0
  0
TEXT
  8
0
 62
     0
 10
4.47003
 20
8.67694
 30
0.0
 40
0.195
  1
x 
 50
0
  0
TEXT
  8
0
 62
     0
 10
4.60333
 20
8.67694
 30
0.0
 40
0.195
  1
9"
 50
0
  0
TEXT
  8
0
 62
     0
 10
4.76565
 20
8.67694
 30
0.0
 40
0.195
  1
. 
 50
0
  0
TEXT
  8
0
 62
     0
 10
4.86385
 20
8.67694
 30
0.0
 40
0.195
  1
This 
 50
0
  0
TEXT
  8
0
 62
     0
 10
0.199806
 20
8.43958
 30
0.0
 40
0.195
  1
sink
 50
0
  0
TEXT
  8
0
 62
     0
 10
0.51236
 20
8.43958
 30
0.0
 40
0.195
  1
 i
 50
0
  0
TEXT
  8
0
 62
     0
 10
0.606543
 20
8.43958
 30
0.0
 40
0.195
  1
s
 50
0
  0
TEXT
  8
0
 62
     0
 10
0.733117
 20
8.43958
 30
0.0
 40
0.195
  1
manufactured
 50
0
  0
TEXT
  8
0
 62
     0
 10
1.84814
 20
8.43958
 30
0.0
 40
0.195
  1
 f
 50
0
  0
TEXT
  8
0
 62
     0
 10
1.95692
 20
8.43958
 30
0.0
 40
0.195
  1
rom 18
 50
0
  0
TEXT
  8
0
 62
     0
 10
2.57426
 20
8.43958
 30
0.0
 40
0.195
  1
gauge
 50
0
  0
TEXT
  8
0
 62
     0
 10
3.03325
 20
8.43958
 30
0.0
 40
0.195
  1
, 
 50
0
  0
TEXT
  8
0
 62
     0
 10
3.16419
 20
8.43958
 30
0.0
 40
0.195
  1
304 
 50
0
  0
TEXT
  8
0
 62
     0
 10
3.54099
 20
8.43958
 30
0.0
 40
0.195
  1
Stainless
 50
0
  0
TEXT
  8
0
 62
     0
 10
4.22344
 20
8.43958
 30
0.0
 40
0.195
  1
 S
 50
0
  0
TEXT
  8
0
 62
     0
 10
4.39336
 20
8.43958
 30
0.0
 40
0.195
  1
teel
 50
0
  0
TEXT
  8
0
 62
     0
 10
4.69442
 20
8.43958
 30
0.0
 40
0.195
  1
 w
 50
0
  0
TEXT
  8
0
 62
     0
 10
4.91582
 20
8.43958
 30
0.0
 40
0.195
  1
i
 50
0
  0
TEXT
  8
0
 62
     0
 10
4.95982
 20
8.43958
 30
0.0
 40
0.195
  1
th a 
 50
0
  0
TEXT
  8
0
 62
     0
 10
0.199806
 20
8.20222
 30
0.0
 40
0.195
  1
B
 50
0
  0
TEXT
  8
0
 62
     0
 10
0.305111
 20
8.20222
 30
0.0
 40
0.195
  1
rushed finish,
 50
0
  0
POLYLINE
  8
0
 62
     0
 66
     1
 10
0
 20
0
 30
0.0
 70
     1
 40
0
 41
0
  0
VERTEX
  8
0
 10
1.5829
 20
8.22282
 30
0.0
 40
0
 41
0
  0
VERTEX
  8
0
 10
1.5829
 20
8.22217
 30
0.0
 40
0
 41
0
  0
VERTEX
  8
0
 10
1.58268
 20
8.22043
 30
0.0
 40
0
 41
0
  0
VERTEX
  8
0
 10
1.58268
 20
8.22021
 30
0.0
 40
0
 41
0
  0
VERTEX
  8
0
 10
1.58214
 20
8.22
 30
0.0
 40
0
 41
0
  0
VERTEX
  8
0
 10
1.58089
 20
8.21869
 30
0.0
 40
0
 41
0
  0
VERTEX
  8
0
 10
1.58247
 20
8.21832
 30
0.0
 40
0
 41
0
  0
VERTEX
  8
0
 10
1.58247
 20
8.21826
 30
0.0
 40
0
 41
0
  0
VERTEX
  8
0
 10
1.58192
 20
8.21815
 30
0.0
 40
0
 41
0
  0
VERTEX
  8
0
 10
1.58046
 20
8.21718
 30
0.0
 40
0
 41
0
  0
VERTEX
  8
0
 10
1.58182
 20
8.21674
 30
0.0
 40
0
 41
0
  0
VERTEX
  8
0
 10
1.58182
 20
8.21674
 30
0.0
 40
0
 41
0
  0
VERTEX
  8
0
 10
1.58149
 20
8.21674
 30
0.0
 40
0
 41
0
  0
VERTEX
  8
0
 10
1.58083
 20
8.21522
 30
0.0
 40
0
 41
0
  0
VERTEX
  8
0
 10
1.58074
 20
8.215
 30
0.0
 40
0
 41
0
  0
VERTEX
  8
0
 10
1.58003
 20
8.21425
 30
0.0
 40
0
 41
0
  0
VERTEX
  8
0
 10
1.57785
 20
8.21203
 30
0.0
 40
0
 41
0
  0
VERTEX
  8
0
 10
1.57721
 20
8.21169
 30
0.0
 40
0
 41
0
  0
VERTEX
  8
0
 10
1.57704
 20
8.21153
 30
0.0
 40
0
 41
0
  0
VERTEX
  8
0
 10
1.57607
 20
8.21061
 30
0.0
 40
0
 41
0
  0
VERTEX
  8
0
 10
1.57281
 20
8.20822
 30
0.0
 40
0
 41
0
  0
VERTEX
  8
0
 10
1.57053
 20
8.20757
 30
0.0
 40
0
 41
0
  0
VERTEX
  8
0
 10
1.56987
 20
8.20719
 30
0.0
 40
0
 41
0
  0
VERTEX
  8
0
 10
1.56912
 20
8.20649
 30
0.0
 40
0
 41
0
  0
VERTEX
  8
0
 10
1.56104
 20
8.204
 30
0.0
 40
0
 41
0
  0
VERTEX
  8
0
 10
1.56011
 20
8.20372
 30
0.0
 40
0
 41
0
  0
VERTEX
  8
0
 10
1.55875
 20
8.20335
 30
0.0
 40
0
 41
0
  0
VERTEX
  8
0
 10
1.55094
 20
8.20221
 30
0.0
 40
0
 41
0
  0
VERTEX
  8
0
 10
1.54839
 20
8.20221
 30
0.0
 40
0
 41
0
  0
VERTEX
  8
0
 10
1.54329
 20
8.20221
 30
0.0
 40
0
 41
0
  0
VERTEX
  8
0
 10
1.52951
 20
8.20546
 30
0.0
 40
0
 41
0
  0
VERTEX
  8
0
 10
1.528
 20
8.20611
 30
0.0
 40
0
 41
0
  0
VERTEX
  8
0
 10
1.52642
 20
8.20643
 30
0.0
 40
0
 41
0
  0
VERTEX
  8
0
 10
1.51367
 20
8.21653
 30
0.0
 40
0
 41
0
  0
VERTEX
  8
0
 10
1.51258
 20
8.21783
 30
0.0
 40
0
 41
0
  0
VERTEX
  8
0
 10
1.51042
 20
8.21903
 30
0.0
 40
0
 41
0
  0
VERTEX
  8
0
 10
1.50532
 20
8.22629
 30
0.0
 40
0
 41
0
  0
VERTEX
  8
0
 10
1.50336
 20
8.23508
 30
0.0
 40
0
 41
0
  0
VERTEX
  8
0
 10
1.50282
 20
8.23693
 30
0.0
 40
0
 41
0
  0
VERTEX
  8
0
 10
1.50201
 20
8.23822
 30
0.0
 40
0
 41
0
  0
VERTEX
  8
0
 10
1.49957
 20
8.25694
 30
0.0
 40
0
 41
0
  0
VERTEX
  8
0
 10
1.49957
 20
8.26318
 30
0.0
 40
0
 41
0
  0
VERTEX
  8
0
 10
1.49957
 20
8.26992
 30
0.0
 40
0
 41
0
  0
VERTEX
  8
0
 10
1.50261
 20
8.28814
 30
0.0
 40
0
 41
0
  0
VERTEX
  8
0
 10
1.50325
 20
8.2901
 30
0.0
 40
0
 41
0
  0
VERTEX
  8
0
 10
1.50353
 20
8.29172
 30
0.0
 40
0
 41
0
  0
VERTEX
  8
0
 10
1.51253
 20
8.30892
 30
0.0
 40
0
 41
0
  0
VERTEX
  8
0
 10
1.51367
 20
8.31028
 30
0.0
 40
0
 41
0
  0
VERTEX
  8
0
 10
1.51476
 20
8.31076
 30
0.0
 40
0
 41
0
  0
VERTEX
  8
0
 10
1.52815
 20
8.32215
 30
0.0
 40
0
 41
0
  0
VERTEX
  8
0
 10
1.52974
 20
8.32286
 30
0.0
 40
0
 41
0
  0
VERTEX
  8
0
 10
1.53108
 20
8.32281
 30
0.0
 40
0
 41
0
  0
VERTEX
  8
0
 10
1.54551
 20
8.32721
 30
0.0
 40
0
 41
0
  0
VERTEX
  8
0
 10
1.55035
 20
8.32721
 30
0.0
 40
0
 41
0
  0
VERTEX
  8
0
 10
1.55279
 20
8.32721
 30
0.0
 40
0
 41
0
  0
VERTEX
  8
0
 10
1.55931
 20
8.32611
 30
0.0
 40
0
 41
0
  0
VERTEX
  8
0
 10
1.56011
 20
8.3259
 30
0.0
 40
0
 41
0
  0
VERTEX
  8
0
 10
1.56039
 20
8.32497
 30
0.0
 40
0
 41
0
  0
VERTEX
  8
0
 10
1.56401
 20
8.32303
 30
0.0
 40
0
 41
0
  0
VERTEX
  8
0
 10
1.56814
 20
8.32319
 30
0.0
 40
0
 41
0
  0
VERTEX
  8
0
 10
1.56879
 20
8.32286
 30
0.0
 40
0
 41
0
  0
VERTEX
  8
0
 10
1.56858
 20
8.32243
 30
0.0
 40
0
 41
0
  0
VERTEX
  8
0
 10
1.5709
 20
8.31976
 30
0.0
 40
0
 41
0
  0
VERTEX
  8
0
 10
1.57542
 20
8.31917
 30
0.0
 40
0
 41
0
  0
VERTEX
  8
0
 10
1.57596
 20
8.31874
 30
0.0
 40
0
 41
0
  0
VERTEX
  8
0
 10
1.57585
 20
8.31793
 30
0.0
 40
0
 41
0
  0
VERTEX
  8
0
 10
1.57986
 20
8.31511
 30
0.0
 40
0
 41
0
  0
VERTEX
  8
0
 10
1.58008
 20
8.31483
 30
0.0
 40
0
 41
0
  0
VERTEX
  8
0
 10
1.58008
 20
8.31483
 30
0.0
 40
0
 41
0
  0
VERTEX
  8
0
 10
1.58171
 20
8.31278
 30
0.0
 40
0
 41
0
  0
VERTEX
  8
0
 10
1.58182
 20
8.31267
 30
0.0
 40
0
 41
0
  0
VERTEX
  8
0
 10
1.58138
 20
8.31218
 30
0.0
 40
0
 41
0
  0
VERTEX
  8
0
 10
1.58057
 20
8.31028
 30
0.0
 40
0
 41
0
  0
VERTEX
  8
0
 10
1.58247
 20
8.31114
 30
0.0
 40
0
 41
0
  0
VERTEX
  8
0
 10
1.58247
 20
8.31114
 30
0.0
 40
0
 41
0
  0
VERTEX
  8
0
 10
1.58197
 20
8.31065
 30
0.0
 40
0
 41
0
  0
VERTEX
  8
0
 10
1.58094
 20
8.30871
 30
0.0
 40
0
 41
0
  0
VERTEX
  8
0
 10
1.58268
 20
8.30897
 30
0.0
 40
0
 41
0
  0
VERTEX
  8
0
 10
1.58268
 20
8.30897
 30
0.0
 40
0
 41
0
  0
VERTEX
  8
0
 10
1.58214
 20
8.30854
 30
0.0
 40
0
 41
0
  0
VERTEX
  8
0
 10
1.58111
 20
8.30658
 30
0.0
 40
0
 41
0
  0
VERTEX
  8
0
 10
1.5829
 20
8.30643
 30
0.0
 40
0
 41
0
  0
VERTEX
  8
0
 10
1.5829
 20
8.30638
 30
0.0
 40
0
 41
0
  0
VERTEX
  8
0
 10
1.5829
 20
8.30556
 30
0.0
 40
0
 41
0
  0
VERTEX
  8
0
 10
1.58268
 20
8.30333
 30
0.0
 40
0
 41
0
  0
VERTEX
  8
0
 10
1.58268
 20
8.30311
 30
0.0
 40
0
 41
0
  0
VERTEX
  8
0
 10
1.58214
 20
8.3029
 30
0.0
 40
0
 41
0
  0
VERTEX
  8
0
 10
1.58083
 20
8.30165
 30
0.0
 40
0
 41
0
  0
VERTEX
  8
0
 10
1.58225
 20
8.30117
 30
0.0
 40
0
 41
0
  0
VERTEX
  8
0
 10
1.58225
 20
8.30117
 30
0.0
 40
0
 41
0
  0
VERTEX
  8
0
 10
1.58171
 20
8.30106
 30
0.0
 40
0
 41
0
  0
VERTEX
  8
0
 10
1.58029
 20
8.30018
 30
0.0
 40
0
 41
0
  0
VERTEX
  8
0
 10
1.5816
 20
8.29986
 30
0.0
 40
0
 41
0
  0
VERTEX
  8
0
 10
1.5816
 20
8.29986
 30
0.0
 40
0
 41
0
  0
VERTEX
  8
0
 10
1.58132
 20
8.29986
 30
0.0
 40
0
 41
0
  0
VERTEX
  8
0
 10
1.58068
 20
8.29943
 30
0.0
 40
0
 41
0
  0
VERTEX
  8
0
 10
1.58051
 20
8.29943
 30
0.0
 40
0
 41
0
  0
VERTEX
  8
0
 10
1.57969
 20
8.29943
 30
0.0
 40
0
 41
0
  0
VERTEX
  8
0
 10
1.57758
 20
8.30126
 30
0.0
 40
0
 41
0
  0
VERTEX
  8
0
 10
1.57726
 20
8.3016
 30
0.0
 40
0
 41
0
  0
VERTEX
  8
0
 10
1.57622
 20
8.30181
 30
0.0
 40
0
 41
0
  0
VERTEX
  8
0
 10
1.5726
 20
8.30593
 30
0.0
 40
0
 41
0
  0
VERTEX
  8
0
 10
1.57206
 20
8.30638
 30
0.0
 40
0
 41
0
  0
VERTEX
  8
0
 10
1.57129
 20
8.30626
 30
0.0
 40
0
 41
0
  0
VERTEX
  8
0
 10
1.56521
 20
8.31082
 30
0.0
 40
0
 41
0
  0
VERTEX
  8
0
 10
1.56446
 20
8.31114
 30
0.0
 40
0
 41
0
  0
VERTEX
  8
0
 10
1.56315
 20
8.31065
 30
0.0
 40
0
 41
0
  0
VERTEX
  8
0
 10
1.55826
 20
8.31131
 30
0.0
 40
0
 41
0
  0
VERTEX
  8
0
 10
1.55474
 20
8.31332
 30
0.0
 40
0
 41
0
  0
VERTEX
  8
0
 10
1.5536
 20
8.31332
 30
0.0
 40
0
 41
0
  0
VERTEX
  8
0
 10
1.5516
 20
8.31332
 30
0.0
 40
0
 41
0
  0
VERTEX
  8
0
 10
1.54557
 20
8.3125
 30
0.0
 40
0
 41
0
  0
VERTEX
  8
0
 10
1.54215
 20
8.3106
 30
0.0
 40
0
 41
0
  0
VERTEX
  8
0
 10
1.54124
 20
8.31006
 30
0.0
 40
0
 41
0
  0
VERTEX
  8
0
 10
1.54025
 20
8.30865
 30
0.0
 40
0
 41
0
  0
VERTEX
  8
0
 10
1.53213
 20
8.30137
 30
0.0
 40
0
 41
0
  0
VERTEX
  8
0
 10
1.53147
 20
8.30029
 30
0.0
 40
0
 41
0
  0
VERTEX
  8
0
 10
1.53043
 20
8.29921
 30
0.0
 40
0
 41
0
  0
VERTEX
  8
0
 10
1.52572
 20
8.2864
 30
0.0
 40
0
 41
0
  0
VERTEX
  8
0
 10
1.52539
 20
8.28489
 30
0.0
 40
0
 41
0
  0
VERTEX
  8
0
 10
1.52403
 20
8.28233
 30
0.0
 40
0
 41
0
  0
VERTEX
  8
0
 10
1.52225
 20
8.27349
 30
0.0
 40
0
 41
0
  0
VERTEX
  8
0
 10
1.52322
 20
8.26644
 30
0.0
 40
0
 41
0
  0
VERTEX
  8
0
 10
1.52322
 20
8.26406
 30
0.0
 40
0
 41
0
  0
VERTEX
  8
0
 10
1.5224
 20
8.26161
 30
0.0
 40
0
 41
0
  0
VERTEX
  8
0
 10
1.52246
 20
8.25222
 30
0.0
 40
0
 41
0
  0
VERTEX
  8
0
 10
1.52485
 20
8.24474
 30
0.0
 40
0
 41
0
  0
VERTEX
  8
0
 10
1.52518
 20
8.24322
 30
0.0
 40
0
 41
0
  0
VERTEX
  8
0
 10
1.52463
 20
8.241
 30
0.0
 40
0
 41
0
  0
VERTEX
  8
0
 10
1.52626
 20
8.2334
 30
0.0
 40
0
 41
0
  0
VERTEX
  8
0
 10
1.5306
 20
8.22928
 30
0.0
 40
0
 41
0
  0
VERTEX
  8
0
 10
1.53125
 20
8.22825
 30
0.0
 40
0
 41
0
  0
VERTEX
  8
0
 10
1.53153
 20
8.22646
 30
0.0
 40
0
 41
0
  0
VERTEX
  8
0
 10
1.53521
 20
8.2214
 30
0.0
 40
0
 41
0
  0
VERTEX
  8
0
 10
1.54004
 20
8.21967
 30
0.0
 40
0
 41
0
  0
VERTEX
  8
0
 10
1.54101
 20
8.21912
 30
0.0
 40
0
 41
0
  0
VERTEX
  8
0
 10
1.5409
 20
8.21881
 30
0.0
 40
0
 41
0
  0
VERTEX
  8
0
 10
1.54531
 20
8.21647
 30
0.0
 40
0
 41
0
  0
VERTEX
  8
0
 10
1.55165
 20
8.2161
 30
0.0
 40
0
 41
0
  0
VERTEX
  8
0
 10
1.55382
 20
8.2161
 30
0.0
 40
0
 41
0
  0
VERTEX
  8
0
 10
1.55382
 20
8.2161
 30
0.0
 40
0
 41
0
  0
VERTEX
  8
0
 10
1.56369
 20
8.21793
 30
0.0
 40
0
 41
0
  0
VERTEX
  8
0
 10
1.56446
 20
8.21826
 30
0.0
 40
0
 41
0
  0
VERTEX
  8
0
 10
1.5644
 20
8.21847
 30
0.0
 40
0
 41
0
  0
VERTEX
  8
0
 10
1.57172
 20
8.2226
 30
0.0
 40
0
 41
0
  0
VERTEX
  8
0
 10
1.57226
 20
8.22304
 30
0.0
 40
0
 41
0
  0
VERTEX
  8
0
 10
1.57254
 20
8.22293
 30
0.0
 40
0
 41
0
  0
VERTEX
  8
0
 10
1.57715
 20
8.22749
 30
0.0
 40
0
 41
0
  0
VERTEX
  8
0
 10
1.57747
 20
8.22781
 30
0.0
 40
0
 41
0
  0
VERTEX
  8
0
 10
1.57747
 20
8.22781
 30
0.0
 40
0
 41
0
  0
VERTEX
  8
0
 10
1.57835
 20
8.22797
 30
0.0
 40
0
 41
0
  0
VERTEX
  8
0
 10
1.58029
 20
8.22999
 30
0.0
 40
0
 41
0
  0
VERTEX
  8
0
 10
1.58094
 20
8.22999
 30
0.0
 40
0
 41
0
  0
VERTEX
  8
0
 10
1.58094
 20
8.22999
 30
0.0
 40
0
 41
0
  0
VERTEX
  8
0
 10
1.58171
 20
8.22965
 30
0.0
 40
0
 41
0
  0
VERTEX
  8
0
 10
1.58182
 20
8.22954
 30
0.0
 40
0
 41
0
  0
VERTEX
  8
0
 10
1.58143
 20
8.22911
 30
0.0
 40
0
 41
0
  0
VERTEX
  8
0
 10
1.58057
 20
8.22749
 30
0.0
 40
0
 41
0
  0
VERTEX
  8
0
 10
1.58247
 20
8.22846
 30
0.0
 40
0
 41
0
  0
VERTEX
  8
0
 10
1.58247
 20
8.22846
 30
0.0
 40
0
 41
0
  0
VERTEX
  8
0
 10
1.58197
 20
8.22797
 30
0.0
 40
0
 41
0
  0
VERTEX
  8
0
 10
1.58094
 20
8.22607
 30
0.0
 40
0
 41
0
  0
VERTEX
  8
0
 10
1.58268
 20
8.22629
 30
0.0
 40
0
 41
0
  0
VERTEX
  8
0
 10
1.58268
 20
8.22629
 30
0.0
 40
0
 41
0
  0
VERTEX
  8
0
 10
1.58214
 20
8.22581
 30
0.0
 40
0
 41
0
  0
VERTEX
  8
0
 10
1.58111
 20
8.22353
 30
0.0
 40
0
 41
0
  0
VERTEX
  8
0
 10
1.5829
 20
8.22304
 30
0.0
 40
0
 41
0
  0
VERTEX
  8
0
 10
1.5829
 20
8.22282
 30
0.0
 40
0
 41
0
  0
SEQEND
 8
0
  0
POLYLINE
  8
0
 62
     0
 66
     1
 10
0
 20
0
 30
0.0
 70
     1
 40
0
 41
0
  0
VERTEX
  8
0
 10
1.68679
 20
8.25146
 30
0.0
 40
0
 41
0
  0
VERTEX
  8
0
 10
1.68679
 20
8.25
 30
0.0
 40
0
 41
0
  0
VERTEX
  8
0
 10
1.68517
 20
8.24593
 30
0.0
 40
0
 41
0
  0
VERTEX
  8
0
 10
1.68485
 20
8.24561
 30
0.0
 40
0
 41
0
  0
VERTEX
  8
0
 10
1.68397
 20
8.24533
 30
0.0
 40
0
 41
0
  0
VERTEX
  8
0
 10
1.68147
 20
8.24408
 30
0.0
 40
0
 41
0
  0
VERTEX
  8
0
 10
1.68104
 20
8.24388
 30
0.0
 40
0
 41
0
  0
VERTEX
  8
0
 10
1.68093
 20
8.24388
 30
0.0
 40
0
 41
0
  0
VERTEX
  8
0
 10
1.62646
 20
8.24388
 30
0.0
 40
0
 41
0
  0
VERTEX
  8
0
 10
1.62571
 20
8.24283
 30
0.0
 40
0
 41
0
  0
VERTEX
  8
0
 10
1.62771
 20
8.23324
 30
0.0
 40
0
 41
0
  0
VERTEX
  8
0
 10
1.62799
 20
8.23236
 30
0.0
 40
0
 41
0
  0
VERTEX
  8
0
 10
1.62744
 20
8.23156
 30
0.0
 40
0
 41
0
  0
VERTEX
  8
0
 10
1.62858
 20
8.22743
 30
0.0
 40
0
 41
0
  0
VERTEX
  8
0
 10
1.63222
 20
8.22433
 30
0.0
 40
0
 41
0
  0
VERTEX
  8
0
 10
1.63276
 20
8.22368
 30
0.0
 40
0
 41
0
  0
VERTEX
  8
0
 10
1.63319
 20
8.22244
 30
0.0
 40
0
 41
0
  0
VERTEX
  8
0
 10
1.64074
 20
8.21838
 30
0.0
 40
0
 41
0
  0
VERTEX
  8
0
 10
1.64165
 20
8.21804
 30
0.0
 40
0
 41
0
  0
VERTEX
  8
0
 10
1.64171
 20
8.21756
 30
0.0
 40
0
 41
0
  0
VERTEX
  8
0
 10
1.64649
 20
8.21636
 30
0.0
 40
0
 41
0
  0
VERTEX
  8
0
 10
1.65294
 20
8.2161
 30
0.0
 40
0
 41
0
  0
VERTEX
  8
0
 10
1.65511
 20
8.2161
 30
0.0
 40
0
 41
0
  0
VERTEX
  8
0
 10
1.65787
 20
8.2161
 30
0.0
 40
0
 41
0
  0
VERTEX
  8
0
 10
1.66407
 20
8.2161
 30
0.0
 40
0
 41
0
  0
VERTEX
  8
0
 10
1.66618
 20
8.2161
 30
0.0
 40
0
 41
0
  0
VERTEX
  8
0
 10
1.66829
 20
8.2161
 30
0.0
 40
0
 41
0
  0
VERTEX
  8
0
 10
1.67301
 20
8.2161
 30
0.0
 40
0
 41
0
  0
VERTEX
  8
0
 10
1.67464
 20
8.2161
 30
0.0
 40
0
 41
0
  0
VERTEX
  8
0
 10
1.67611
 20
8.2161
 30
0.0
 40
0
 41
0
  0
VERTEX
  8
0
 10
1.67936
 20
8.2161
 30
0.0
 40
0
 41
0
  0
VERTEX
  8
0
 10
1.6805
 20
8.2161
 30
0.0
 40
0
 41
0
  0
VERTEX
  8
0
 10
1.6805
 20
8.2161
 30
0.0
 40
0
 41
0
  0
VERTEX
  8
0
 10
1.68326
 20
8.2161
 30
0.0
 40
0
 41
0
  0
VERTEX
  8
0
 10
1.68419
 20
8.2161
 30
0.0
 40
0
 41
0
  0
VERTEX
  8
0
 10
1.68419
 20
8.2161
 30
0.0
 40
0
 41
0
  0
VERTEX
  8
0
 10
1.68517
 20
8.21576
 30
0.0
 40
0
 41
0
  0
VERTEX
  8
0
 10
1.68528
 20
8.21565
 30
0.0
 40
0
 41
0
  0
VERTEX
  8
0
 10
1.6849
 20
8.21522
 30
0.0
 40
0
 41
0
  0
VERTEX
  8
0
 10
1.68425
 20
8.2136
 30
0.0
 40
0
 41
0
  0
VERTEX
  8
0
 10
1.68614
 20
8.21457
 30
0.0
 40
0
 41
0
  0
VERTEX
  8
0
 10
1.68614
 20
8.21457
 30
0.0
 40
0
 41
0
  0
VERTEX
  8
0
 10
1.68571
 20
8.21408
 30
0.0
 40
0
 41
0
  0
VERTEX
  8
0
 10
1.68479
 20
8.21224
 30
0.0
 40
0
 41
0
  0
VERTEX
  8
0
 10
1.68658
 20
8.21263
 30
0.0
 40
0
 41
0
  0
VERTEX
  8
0
 10
1.68658
 20
8.21263
 30
0.0
 40
0
 41
0
  0
VERTEX
  8
0
 10
1.68604
 20
8.21213
 30
0.0
 40
0
 41
0
  0
VERTEX
  8
0
 10
1.685
 20
8.20985
 30
0.0
 40
0
 41
0
  0
VERTEX
  8
0
 10
1.68679
 20
8.20953
 30
0.0
 40
0
 41
0
  0
VERTEX
  8
0
 10
1.68679
 20
8.20936
 30
0.0
 40
0
 41
0
  0
VERTEX
  8
0
 10
1.68679
 20
8.20876
 30
0.0
 40
0
 41
0
  0
VERTEX
  8
0
 10
1.68658
 20
8.20719
 30
0.0
 40
0
 41
0
  0
VERTEX
  8
0
 10
1.68658
 20
8.20697
 30
0.0
 40
0
 41
0
  0
VERTEX
  8
0
 10
1.68604
 20
8.20676
 30
0.0
 40
0
 41
0
  0
VERTEX
  8
0
 10
1.68479
 20
8.20551
 30
0.0
 40
0
 41
0
  0
VERTEX
  8
0
 10
1.68636
 20
8.20524
 30
0.0
 40
0
 41
0
  0
VERTEX
  8
0
 10
1.68636
 20
8.20524
 30
0.0
 40
0
 41
0
  0
VERTEX
  8
0
 10
1.68588
 20
8.20514
 30
0.0
 40
0
 41
0
  0
VERTEX
  8
0
 10
1.68451
 20
8.20421
 30
0.0
 40
0
 41
0
  0
VERTEX
  8
0
 10
1.68593
 20
8.20394
 30
0.0
 40
0
 41
0
  0
VERTEX
  8
0
 10
1.68593
 20
8.20394
 30
0.0
 40
0
 41
0
  0
VERTEX
  8
0
 10
1.68533
 20
8.20383
 30
0.0
 40
0
 41
0
  0
VERTEX
  8
0
 10
1.68375
 20
8.20307
 30
0.0
 40
0
 41
0
  0
VERTEX
  8
0
 10
1.68485
 20
8.20264
 30
0.0
 40
0
 41
0
  0
VERTEX
  8
0
 10
1.68485
 20
8.20264
 30
0.0
 40
0
 41
0
  0
VERTEX
  8
0
 10
1.68403
 20
8.20258
 30
0.0
 40
0
 41
0
  0
VERTEX
  8
0
 10
1.68218
 20
8.20221
 30
0.0
 40
0
 41
0
  0
VERTEX
  8
0
 10
1.68158
 20
8.20221
 30
0.0
 40
0
 41
0
  0
VERTEX
  8
0
 10
1.67974
 20
8.20221
 30
0.0
 40
0
 41
0
  0
VERTEX
  8
0
 10
1.67557
 20
8.20221
 30
0.0
 40
0
 41
0
  0
VERTEX
  8
0
 10
1.67421
 20
8.20221
 30
0.0
 40
0
 41
0
  0
VERTEX
  8
0
 10
1.67156
 20
8.20221
 30
0.0
 40
0
 41
0
  0
VERTEX
  8
0
 10
1.66553
 20
8.20221
 30
0.0
 40
0
 41
0
  0
VERTEX
  8
0
 10
1.66357
 20
8.20221
 30
0.0
 40
0
 41
0
  0
VERTEX
  8
0
 10
1.66043
 20
8.20221
 30
0.0
 40
0
 41
0
  0
VERTEX
  8
0
 10
1.65332
 20
8.20221
 30
0.0
 40
0
 41
0
  0
VERTEX
  8
0
 10
1.65099
 20
8.20221
 30
0.0
 40
0
 41
0
  0
VERTEX
  8
0
 10
1.64583
 20
8.20221
 30
0.0
 40
0
 41
0
  0
VERTEX
  8
0
 10
1.63183
 20
8.20475
 30
0.0
 40
0
 41
0
  0
VERTEX
  8
0
 10
1.63038
 20
8.20524
 30
0.0
 40
0
 41
0
  0
VERTEX
  8
0
 10
1.62788
 20
8.20551
 30
0.0
 40
0
 41
0
  0
VERTEX
  8
0
 10
1.62067
 20
8.20861
 30
0.0
 40
0
 41
0
  0
VERTEX
  8
0
 10
1.6166
 20
8.21317
 30
0.0
 40
0
 41
0
  0
VERTEX
  8
0
 10
1.61561
 20
8.21414
 30
0.0
 40
0
 41
0
  0
VERTEX
  8
0
 10
1.61387
 20
8.21414
 30
0.0
 40
0
 41
0
  0
VERTEX
  8
0
 10
1.60872
 20
8.21951
 30
0.0
 40
0
 41
0
  0
VERTEX
  8
0
 10
1.60699
 20
8.22781
 30
0.0
 40
0
 41
0
  0
VERTEX
  8
0
 10
1.6065
 20
8.22933
 30
0.0
 40
0
 41
0
  0
VERTEX
  8
0
 10
1.60574
 20
8.22976
 30
0.0
 40
0
 41
0
  0
VERTEX
  8
0
 10
1.60385
 20
8.23753
 30
0.0
 40
0
 41
0
  0
VERTEX
  8
0
 10
1.60346
 20
8.24718
 30
0.0
 40
0
 41
0
  0
VERTEX
  8
0
 10
1.60346
 20
8.25037
 30
0.0
 40
0
 41
0
  0
VERTEX
  8
0
 10
1.60346
 20
8.25549
 30
0.0
 40
0
 41
0
  0
VERTEX
  8
0
 10
1.60596
 20
8.26932
 30
0.0
 40
0
 41
0
  0
VERTEX
  8
0
 10
1.6065
 20
8.27078
 30
0.0
 40
0
 41
0
  0
VERTEX
  8
0
 10
1.60672
 20
8.27121
 30
0.0
 40
0
 41
0
  0
VERTEX
  8
0
 10
1.60975
 20
8.27756
 30
0.0
 40
0
 41
0
  0
VERTEX
  8
0
 10
1.61421
 20
8.28515
 30
0.0
 40
0
 41
0
  0
VERTEX
  8
0
 10
1.61518
 20
8.28618
 30
0.0
 40
0
 41
0
  0
VERTEX
  8
0
 10
1.61513
 20
8.28722
 30
0.0
 40
0
 41
0
  0
VERTEX
  8
0
 10
1.6199
 20
8.29183
 30
0.0
 40
0
 41
0
  0
VERTEX
  8
0
 10
1.6275
 20
8.29542
 30
0.0
 40
0
 41
0
  0
VERTEX
  8
0
 10
1.62885
 20
8.29596
 30
0.0
 40
0
 41
0
  0
VERTEX
  8
0
 10
1.62924
 20
8.29568
 30
0.0
 40
0
 41
0
  0
VERTEX
  8
0
 10
1.6359
 20
8.29725
 30
0.0
 40
0
 41
0
  0
VERTEX
  8
0
 10
1.6441
 20
8.29943
 30
0.0
 40
0
 41
0
  0
VERTEX
  8
0
 10
1.64686
 20
8.29943
 30
0.0
 40
0
 41
0
  0
VERTEX
  8
0
 10
1.65142
 20
8.29943
 30
0.0
 40
0
 41
0
  0
VERTEX
  8
0
 10
1.66385
 20
8.29639
 30
0.0
 40
0
 41
0
  0
VERTEX
  8
0
 10
1.6651
 20
8.29574
 30
0.0
 40
0
 41
0
  0
VERTEX
  8
0
 10
1.66585
 20
8.29432
 30
0.0
 40
0
 41
0
  0
VERTEX
  8
0
 10
1.67665
 20
8.28722
 30
0.0
 40
0
 41
0
  0
VERTEX
  8
0
 10
1.67746
 20
8.28618
 30
0.0
 40
0
 41
0
  0
VERTEX
  8
0
 10
1.67785
 20
8.28515
 30
0.0
 40
0
 41
0
  0
VERTEX
  8
0
 10
1.68403
 20
8.27328
 30
0.0
 40
0
 41
0
  0
VERTEX
  8
0
 10
1.6844
 20
8.27186
 30
0.0
 40
0
 41
0
  0
VERTEX
  8
0
 10
1.68381
 20
8.27051
 30
0.0
 40
0
 41
0
  0
VERTEX
  8
0
 10
1.68679
 20
8.25851
 30
0.0
 40
0
 41
0
  0
VERTEX
  8
0
 10
1.68679
 20
8.2545
 30
0.0
 40
0
 41
0
  0
VERTEX
  8
0
 10
1.68679
 20
8.25146
 30
0.0
 40
0
 41
0
  0
SEQEND
 8
0
  0
POLYLINE
  8
0
 62
     0
 66
     1
 10
0
 20
0
 30
0.0
 70
     1
 40
0
 41
0
  0
VERTEX
  8
0
 10
1.66401
 20
8.25776
 30
0.0
 40
0
 41
0
  0
VERTEX
  8
0
 10
1.66362
 20
8.25993
 30
0.0
 40
0
 41
0
  0
VERTEX
  8
0
 10
1.66043
 20
8.27696
 30
0.0
 40
0
 41
0
  0
VERTEX
  8
0
 10
1.65967
 20
8.27815
 30
0.0
 40
0
 41
0
  0
VERTEX
  8
0
 10
1.65881
 20
8.27886
 30
0.0
 40
0
 41
0
  0
VERTEX
  8
0
 10
1.64903
 20
8.28554
 30
0.0
 40
0
 41
0
  0
VERTEX
  8
0
 10
1.64578
 20
8.28554
 30
0.0
 40
0
 41
0
  0
VERTEX
  8
0
 10
1.64372
 20
8.28554
 30
0.0
 40
0
 41
0
  0
VERTEX
  8
0
 10
1.63807
 20
8.28358
 30
0.0
 40
0
 41
0
  0
VERTEX
  8
0
 10
1.63753
 20
8.28315
 30
0.0
 40
0
 41
0
  0
VERTEX
  8
0
 10
1.63661
 20
8.28212
 30
0.0
 40
0
 41
0
  0
VERTEX
  8
0
 10
1.63351
 20
8.27914
 30
0.0
 40
0
 41
0
  0
VERTEX
  8
0
 10
1.632
 20
8.27767
 30
0.0
 40
0
 41
0
  0
VERTEX
  8
0
 10
1.63167
 20
8.27707
 30
0.0
 40
0
 41
0
  0
VERTEX
  8
0
 10
1.63124
 20
8.27604
 30
0.0
 40
0
 41
0
  0
VERTEX
  8
0
 10
1.62819
 20
8.26904
 30
0.0
 40
0
 41
0
  0
VERTEX
  8
0
 10
1.62799
 20
8.26818
 30
0.0
 40
0
 41
0
  0
VERTEX
  8
0
 10
1.62706
 20
8.26682
 30
0.0
 40
0
 41
0
  0
VERTEX
  8
0
 10
1.6256
 20
8.26178
 30
0.0
 40
0
 41
0
  0
VERTEX
  8
0
 10
1.62646
 20
8.25868
 30
0.0
 40
0
 41
0
  0
VERTEX
  8
0
 10
1.62646
 20
8.25776
 30
0.0
 40
0
 41
0
  0
VERTEX
  8
0
 10
1.66401
 20
8.25776
 30
0.0
 40
0
 41
0
  0
SEQEND
 8
0
  0
POLYLINE
  8
0
 62
     0
 66
     1
 10
0
 20
0
 30
0.0
 70
     1
 40
0
 41
0
  0
VERTEX
  8
0
 10
1.76997
 20
8.20524
 30
0.0
 40
0
 41
0
  0
VERTEX
  8
0
 10
1.76997
 20
8.20492
 30
0.0
 40
0
 41
0
  0
VERTEX
  8
0
 10
1.76942
 20
8.20404
 30
0.0
 40
0
 41
0
  0
VERTEX
  8
0
 10
1.76932
 20
8.20394
 30
0.0
 40
0
 41
0
  0
VERTEX
  8
0
 10
1.76872
 20
8.20383
 30
0.0
 40
0
 41
0
  0
VERTEX
  8
0
 10
1.76699
 20
8.20329
 30
0.0
 40
0
 41
0
  0
VERTEX
  8
0
 10
1.76758
 20
8.20307
 30
0.0
 40
0
 41
0
  0
VERTEX
  8
0
 10
1.76758
 20
8.20307
 30
0.0
 40
0
 41
0
  0
VERTEX
  8
0
 10
1.76671
 20
8.20296
 30
0.0
 40
0
 41
0
  0
VERTEX
  8
0
 10
1.76443
 20
8.20247
 30
0.0
 40
0
 41
0
  0
VERTEX
  8
0
 10
1.76411
 20
8.20242
 30
0.0
 40
0
 41
0
  0
VERTEX
  8
0
 10
1.76307
 20
8.20236
 30
0.0
 40
0
 41
0
  0
VERTEX
  8
0
 10
1.75976
 20
8.20221
 30
0.0
 40
0
 41
0
  0
VERTEX
  8
0
 10
1.75868
 20
8.20221
 30
0.0
 40
0
 41
0
  0
VERTEX
  8
0
 10
1.75726
 20
8.20221
 30
0.0
 40
0
 41
0
  0
VERTEX
  8
0
 10
1.75336
 20
8.20242
 30
0.0
 40
0
 41
0
  0
VERTEX
  8
0
 10
1.75304
 20
8.20242
 30
0.0
 40
0
 41
0
  0
VERTEX
  8
0
 10
1.75217
 20
8.20242
 30
0.0
 40
0
 41
0
  0
VERTEX
  8
0
 10
1.74978
 20
8.20301
 30
0.0
 40
0
 41
0
  0
VERTEX
  8
0
 10
1.74957
 20
8.20307
 30
0.0
 40
0
 41
0
  0
VERTEX
  8
0
 10
1.74908
 20
8.20307
 30
0.0
 40
0
 41
0
  0
VERTEX
  8
0
 10
1.74772
 20
8.20389
 30
0.0
 40
0
 41
0
  0
VERTEX
  8
0
 10
1.74761
 20
8.20394
 30
0.0
 40
0
 41
0
  0
VERTEX
  8
0
 10
1.7475
 20
8.20394
 30
0.0
 40
0
 41
0
  0
VERTEX
  8
0
 10
1.74718
 20
8.20492
 30
0.0
 40
0
 41
0
  0
VERTEX
  8
0
 10
1.74718
 20
8.20524
 30
0.0
 40
0
 41
0
  0
VERTEX
  8
0
 10
1.74718
 20
8.25797
 30
0.0
 40
0
 41
0
  0
VERTEX
  8
0
 10
1.74675
 20
8.25928
 30
0.0
 40
0
 41
0
  0
VERTEX
  8
0
 10
1.74664
 20
8.26958
 30
0.0
 40
0
 41
0
  0
VERTEX
  8
0
 10
1.74653
 20
8.27035
 30
0.0
 40
0
 41
0
  0
VERTEX
  8
0
 10
1.74653
 20
8.27035
 30
0.0
 40
0
 41
0
  0
VERTEX
  8
0
 10
1.74511
 20
8.27317
 30
0.0
 40
0
 41
0
  0
VERTEX
  8
0
 10
1.74479
 20
8.27783
 30
0.0
 40
0
 41
0
  0
VERTEX
  8
0
 10
1.74457
 20
8.27838
 30
0.0
 40
0
 41
0
  0
VERTEX
  8
0
 10
1.74419
 20
8.27843
 30
0.0
 40
0
 41
0
  0
VERTEX
  8
0
 10
1.74186
 20
8.28331
 30
0.0
 40
0
 41
0
  0
VERTEX
  8
0
 10
1.74154
 20
8.28358
 30
0.0
 40
0
 41
0
  0
VERTEX
  8
0
 10
1.74072
 20
8.28326
 30
0.0
 40
0
 41
0
  0
VERTEX
  8
0
 10
1.73774
 20
8.28358
 30
0.0
 40
0
 41
0
  0
VERTEX
  8
0
 10
1.73714
 20
8.28554
 30
0.0
 40
0
 41
0
  0
VERTEX
  8
0
 10
1.73699
 20
8.28554
 30
0.0
 40
0
 41
0
  0
VERTEX
  8
0
 10
1.73529
 20
8.28554
 30
0.0
 40
0
 41
0
  0
VERTEX
  8
0
 10
1.73079
 20
8.28174
 30
0.0
 40
0
 41
0
  0
VERTEX
  8
0
 10
1.73025
 20
8.28097
 30
0.0
 40
0
 41
0
  0
VERTEX
  8
0
 10
1.72954
 20
8.27951
 30
0.0
 40
0
 41
0
  0
VERTEX
  8
0
 10
1.7239
 20
8.26958
 30
0.0
 40
0
 41
0
  0
VERTEX
  8
0
 10
1.72331
 20
8.26818
 30
0.0
 40
0
 41
0
  0
VERTEX
  8
0
 10
1.72331
 20
8.20524
 30
0.0
 40
0
 41
0
  0
VERTEX
  8
0
 10
1.72304
 20
8.20514
 30
0.0
 40
0
 41
0
  0
VERTEX
  8
0
 10
1.72276
 20
8.20404
 30
0.0
 40
0
 41
0
  0
VERTEX
  8
0
 10
1.72265
 20
8.20394
 30
0.0
 40
0
 41
0
  0
VERTEX
  8
0
 10
1.72217
 20
8.20383
 30
0.0
 40
0
 41
0
  0
VERTEX
  8
0
 10
1.72114
 20
8.20318
 30
0.0
 40
0
 41
0
  0
VERTEX
  8
0
 10
1.72092
 20
8.20307
 30
0.0
 40
0
 41
0
  0
VERTEX
  8
0
 10
1.72017
 20
8.20296
 30
0.0
 40
0
 41
0
  0
VERTEX
  8
0
 10
1.71778
 20
8.20247
 30
0.0
 40
0
 41
0
  0
VERTEX
  8
0
 10
1.71744
 20
8.20242
 30
0.0
 40
0
 41
0
  0
VERTEX
  8
0
 10
1.71679
 20
8.20236
 30
0.0
 40
0
 41
0
  0
VERTEX
  8
0
 10
1.71306
 20
8.20221
 30
0.0
 40
0
 41
0
  0
VERTEX
  8
0
 10
1.71181
 20
8.20221
 30
0.0
 40
0
 41
0
  0
VERTEX
  8
0
 10
1.71044
 20
8.20221
 30
0.0
 40
0
 41
0
  0
VERTEX
  8
0
 10
1.70671
 20
8.20242
 30
0.0
 40
0
 41
0
  0
VERTEX
  8
0
 10
1.70638
 20
8.20242
 30
0.0
 40
0
 41
0
  0
VERTEX
  8
0
 10
1.70551
 20
8.20247
 30
0.0
 40
0
 41
0
  0
VERTEX
  8
0
 10
1.7029
 20
8.20301
 30
0.0
 40
0
 41
0
  0
VERTEX
  8
0
 10
1.70269
 20
8.20307
 30
0.0
 40
0
 41
0
  0
VERTEX
  8
0
 10
1.70226
 20
8.20307
 30
0.0
 40
0
 41
0
  0
VERTEX
  8
0
 10
1.70101
 20
8.20389
 30
0.0
 40
0
 41
0
  0
VERTEX
  8
0
 10
1.70096
 20
8.20394
 30
0.0
 40
0
 41
0
  0
VERTEX
  8
0
 10
1.70096
 20
8.20394
 30
0.0
 40
0
 41
0
  0
VERTEX
  8
0
 10
1.70053
 20
8.20492
 30
0.0
 40
0
 41
0
  0
VERTEX
  8
0
 10
1.70053
 20
8.20524
 30
0.0
 40
0
 41
0
  0
VERTEX
  8
0
 10
1.70053
 20
8.29639
 30
0.0
 40
0
 41
0
  0
VERTEX
  8
0
 10
1.70053
 20
8.29639
 30
0.0
 40
0
 41
0
  0
VERTEX
  8
0
 10
1.70085
 20
8.29742
 30
0.0
 40
0
 41
0
  0
VERTEX
  8
0
 10
1.70096
 20
8.29747
 30
0.0
 40
0
 41
0
  0
VERTEX
  8
0
 10
1.70096
 20
8.29747
 30
0.0
 40
0
 41
0
  0
VERTEX
  8
0
 10
1.70226
 20
8.2985
 30
0.0
 40
0
 41
0
  0
VERTEX
  8
0
 10
1.70247
 20
8.29856
 30
0.0
 40
0
 41
0
  0
VERTEX
  8
0
 10
1.70247
 20
8.29829
 30
0.0
 40
0
 41
0
  0
VERTEX
  8
0
 10
1.70367
 20
8.29742
 30
0.0
 40
0
 41
0
  0
VERTEX
  8
0
 10
1.70518
 20
8.29921
 30
0.0
 40
0
 41
0
  0
VERTEX
  8
0
 10
1.70574
 20
8.29921
 30
0.0
 40
0
 41
0
  0
VERTEX
  8
0
 10
1.70568
 20
8.29889
 30
0.0
 40
0
 41
0
  0
VERTEX
  8
0
 10
1.70736
 20
8.29769
 30
0.0
 40
0
 41
0
  0
VERTEX
  8
0
 10
1.71001
 20
8.29943
 30
0.0
 40
0
 41
0
  0
VERTEX
  8
0
 10
1.71094
 20
8.29943
 30
0.0
 40
0
 41
0
  0
VERTEX
  8
0
 10
1.71094
 20
8.29943
 30
0.0
 40
0
 41
0
  0
VERTEX
  8
0
 10
1.7156
 20
8.29926
 30
0.0
 40
0
 41
0
  0
VERTEX
  8
0
 10
1.71593
 20
8.29921
 30
0.0
 40
0
 41
0
  0
VERTEX
  8
0
 10
1.71599
 20
8.29872
 30
0.0
 40
0
 41
0
  0
VERTEX
  8
0
 10
1.71744
 20
8.29736
 30
0.0
 40
0
 41
0
  0
VERTEX
  8
0
 10
1.71881
 20
8.29867
 30
0.0
 40
0
 41
0
  0
VERTEX
  8
0
 10
1.71897
 20
8.29856
 30
0.0
 40
0
 41
0
  0
VERTEX
  8
0
 10
1.71886
 20
8.29807
 30
0.0
 40
0
 41
0
  0
VERTEX
  8
0
 10
1.71946
 20
8.29644
 30
0.0
 40
0
 41
0
  0
VERTEX
  8
0
 10
1.72071
 20
8.29747
 30
0.0
 40
0
 41
0
  0
VERTEX
  8
0
 10
1.72071
 20
8.29747
 30
0.0
 40
0
 41
0
  0
VERTEX
  8
0
 10
1.72049
 20
8.29704
 30
0.0
 40
0
 41
0
  0
VERTEX
  8
0
 10
1.72021
 20
8.29551
 30
0.0
 40
0
 41
0
  0
VERTEX
  8
0
 10
1.72114
 20
8.29639
 30
0.0
 40
0
 41
0
  0
VERTEX
  8
0
 10
1.72114
 20
8.29639
 30
0.0
 40
0
 41
0
  0
VERTEX
  8
0
 10
1.72114
 20
8.28424
 30
0.0
 40
0
 41
0
  0
VERTEX
  8
0
 10
1.72151
 20
8.2845
 30
0.0
 40
0
 41
0
  0
VERTEX
  8
0
 10
1.72612
 20
8.28944
 30
0.0
 40
0
 41
0
  0
VERTEX
  8
0
 10
1.73188
 20
8.29514
 30
0.0
 40
0
 41
0
  0
VERTEX
  8
0
 10
1.73286
 20
8.29574
 30
0.0
 40
0
 41
0
  0
VERTEX
  8
0
 10
1.73346
 20
8.29551
 30
0.0
 40
0
 41
0
  0
VERTEX
  8
0
 10
1.74192
 20
8.29943
 30
0.0
 40
0
 41
0
  0
VERTEX
  8
0
 10
1.74479
 20
8.29943
 30
0.0
 40
0
 41
0
  0
VERTEX
  8
0
 10
1.74778
 20
8.29943
 30
0.0
 40
0
 41
0
  0
VERTEX
  8
0
 10
1.75592
 20
8.29693
 30
0.0
 40
0
 41
0
  0
VERTEX
  8
0
 10
1.75672
 20
8.29639
 30
0.0
 40
0
 41
0
  0
VERTEX
  8
0
 10
1.75743
 20
8.29497
 30
0.0
 40
0
 41
0
  0
VERTEX
  8
0
 10
1.76383
 20
8.28901
 30
0.0
 40
0
 41
0
  0
VERTEX
  8
0
 10
1.76432
 20
8.28814
 30
0.0
 40
0
 41
0
  0
VERTEX
  8
0
 10
1.76411
 20
8.28711
 30
0.0
 40
0
 41
0
  0
VERTEX
  8
0
 10
1.76844
 20
8.2774
 30
0.0
 40
0
 41
0
  0
VERTEX
  8
0
 10
1.76867
 20
8.27621
 30
0.0
 40
0
 41
0
  0
VERTEX
  8
0
 10
1.76779
 20
8.27474
 30
0.0
 40
0
 41
0
  0
VERTEX
  8
0
 10
1.76801
 20
8.26824
 30
0.0
 40
0
 41
0
  0
VERTEX
  8
0
 10
1.76997
 20
8.26204
 30
0.0
 40
0
 41
0
  0
VERTEX
  8
0
 10
1.76997
 20
8.25993
 30
0.0
 40
0
 41
0
  0
VERTEX
  8
0
 10
1.76997
 20
8.20524
 30
0.0
 40
0
 41
0
  0
SEQEND
 8
0
  0
POLYLINE
  8
0
 62
     0
 66
     1
 10
0
 20
0
 30
0.0
 70
     1
 40
0
 41
0
  0
VERTEX
  8
0
 10
1.84451
 20
8.21283
 30
0.0
 40
0
 41
0
  0
VERTEX
  8
0
 10
1.84451
 20
8.21169
 30
0.0
 40
0
 41
0
  0
VERTEX
  8
0
 10
1.84412
 20
8.20861
 30
0.0
 40
0
 41
0
  0
VERTEX
  8
0
 10
1.84407
 20
8.20828
 30
0.0
 40
0
 41
0
  0
VERTEX
  8
0
 10
1.84343
 20
8.20785
 30
0.0
 40
0
 41
0
  0
VERTEX
  8
0
 10
1.84179
 20
8.206
 30
0.0
 40
0
 41
0
  0
VERTEX
  8
0
 10
1.84278
 20
8.20568
 30
0.0
 40
0
 41
0
  0
VERTEX
  8
0
 10
1.84278
 20
8.20568
 30
0.0
 40
0
 41
0
  0
VERTEX
  8
0
 10
1.84212
 20
8.20546
 30
0.0
 40
0
 41
0
  0
VERTEX
  8
0
 10
1.84033
 20
8.20458
 30
0.0
 40
0
 41
0
  0
VERTEX
  8
0
 10
1.8406
 20
8.20438
 30
0.0
 40
0
 41
0
  0
VERTEX
  8
0
 10
1.8406
 20
8.20438
 30
0.0
 40
0
 41
0
  0
VERTEX
  8
0
 10
1.83974
 20
8.20415
 30
0.0
 40
0
 41
0
  0
VERTEX
  8
0
 10
1.83746
 20
8.2034
 30
0.0
 40
0
 41
0
  0
VERTEX
  8
0
 10
1.83712
 20
8.20329
 30
0.0
 40
0
 41
0
  0
VERTEX
  8
0
 10
1.83626
 20
8.20313
 30
0.0
 40
0
 41
0
  0
VERTEX
  8
0
 10
1.83317
 20
8.20253
 30
0.0
 40
0
 41
0
  0
VERTEX
  8
0
 10
1.83279
 20
8.20242
 30
0.0
 40
0
 41
0
  0
VERTEX
  8
0
 10
1.83225
 20
8.20236
 30
0.0
 40
0
 41
0
  0
VERTEX
  8
0
 10
1.82937
 20
8.20221
 30
0.0
 40
0
 41
0
  0
VERTEX
  8
0
 10
1.82844
 20
8.20221
 30
0.0
 40
0
 41
0
  0
VERTEX
  8
0
 10
1.82553
 20
8.20221
 30
0.0
 40
0
 41
0
  0
VERTEX
  8
0
 10
1.81749
 20
8.20367
 30
0.0
 40
0
 41
0
  0
VERTEX
  8
0
 10
1.81674
 20
8.20394
 30
0.0
 40
0
 41
0
  0
VERTEX
  8
0
 10
1.81592
 20
8.20415
 30
0.0
 40
0
 41
0
  0
VERTEX
  8
0
 10
1.80925
 20
8.20899
 30
0.0
 40
0
 41
0
  0
VERTEX
  8
0
 10
1.80871
 20
8.20958
 30
0.0
 40
0
 41
0
  0
VERTEX
  8
0
 10
1.80783
 20
8.20964
 30
0.0
 40
0
 41
0
  0
VERTEX
  8
0
 10
1.80528
 20
8.213
 30
0.0
 40
0
 41
0
  0
VERTEX
  8
0
 10
1.80436
 20
8.21821
 30
0.0
 40
0
 41
0
  0
VERTEX
  8
0
 10
1.80414
 20
8.21912
 30
0.0
 40
0
 41
0
  0
VERTEX
  8
0
 10
1.80382
 20
8.21989
 30
0.0
 40
0
 41
0
  0
VERTEX
  8
0
 10
1.80285
 20
8.2296
 30
0.0
 40
0
 41
0
  0
VERTEX
  8
0
 10
1.80285
 20
8.23281
 30
0.0
 40
0
 41
0
  0
VERTEX
  8
0
 10
1.80285
 20
8.28554
 30
0.0
 40
0
 41
0
  0
VERTEX
  8
0
 10
1.79178
 20
8.28554
 30
0.0
 40
0
 41
0
  0
VERTEX
  8
0
 10
1.79124
 20
8.28554
 30
0.0
 40
0
 41
0
  0
VERTEX
  8
0
 10
1.78971
 20
8.28683
 30
0.0
 40
0
 41
0
  0
VERTEX
  8
0
 10
1.78961
 20
8.28706
 30
0.0
 40
0
 41
0
  0
VERTEX
  8
0
 10
1.78944
 20
8.28722
 30
0.0
 40
0
 41
0
  0
VERTEX
  8
0
 10
1.78896
 20
8.29118
 30
0.0
 40
0
 41
0
  0
VERTEX
  8
0
 10
1.78896
 20
8.29249
 30
0.0
 40
0
 41
0
  0
VERTEX
  8
0
 10
1.78896
 20
8.29249
 30
0.0
 40
0
 41
0
  0
VERTEX
  8
0
 10
1.78911
 20
8.29551
 30
0.0
 40
0
 41
0
  0
VERTEX
  8
0
 10
1.78917
 20
8.29574
 30
0.0
 40
0
 41
0
  0
VERTEX
  8
0
 10
1.78917
 20
8.29574
 30
0.0
 40
0
 41
0
  0
VERTEX
  8
0
 10
1.78956
 20
8.29779
 30
0.0
 40
0
 41
0
  0
VERTEX
  8
0
 10
1.78961
 20
8.2979
 30
0.0
 40
0
 41
0
  0
VERTEX
  8
0
 10
1.78961
 20
8.2979
 30
0.0
 40
0
 41
0
  0
VERTEX
  8
0
 10
1.79036
 20
8.29899
 30
0.0
 40
0
 41
0
  0
VERTEX
  8
0
 10
1.79047
 20
8.29899
 30
0.0
 40
0
 41
0
  0
VERTEX
  8
0
 10
1.79047
 20
8.29867
 30
0.0
 40
0
 41
0
  0
VERTEX
  8
0
 10
1.79096
 20
8.29764
 30
0.0
 40
0
 41
0
  0
VERTEX
  8
0
 10
1.79172
 20
8.29943
 30
0.0
 40
0
 41
0
  0
VERTEX
  8
0
 10
1.79199
 20
8.29943
 30
0.0
 40
0
 41
0
  0
VERTEX
  8
0
 10
1.80285
 20
8.29943
 30
0.0
 40
0
 41
0
  0
VERTEX
  8
0
 10
1.80285
 20
8.32351
 30
0.0
 40
0
 41
0
  0
VERTEX
  8
0
 10
1.80285
 20
8.32351
 30
0.0
 40
0
 41
0
  0
VERTEX
  8
0
 10
1.80317
 20
8.32493
 30
0.0
 40
0
 41
0
  0
VERTEX
  8
0
 10
1.80328
 20
8.32503
 30
0.0
 40
0
 41
0
  0
VERTEX
  8
0
 10
1.80328
 20
8.32503
 30
0.0
 40
0
 41
0
  0
VERTEX
  8
0
 10
1.80479
 20
8.32607
 30
0.0
 40
0
 41
0
  0
VERTEX
  8
0
 10
1.80501
 20
8.32611
 30
0.0
 40
0
 41
0
  0
VERTEX
  8
0
 10
1.80501
 20
8.32585
 30
0.0
 40
0
 41
0
  0
VERTEX
  8
0
 10
1.80638
 20
8.32508
 30
0.0
 40
0
 41
0
  0
VERTEX
  8
0
 10
1.80832
 20
8.32699
 30
0.0
 40
0
 41
0
  0
VERTEX
  8
0
 10
1.80871
 20
8.32699
 30
0.0
 40
0
 41
0
  0
VERTEX
  8
0
 10
1.80865
 20
8.32671
 30
0.0
 40
0
 41
0
  0
VERTEX
  8
0
 10
1.81039
 20
8.32547
 30
0.0
 40
0
 41
0
  0
VERTEX
  8
0
 10
1.81315
 20
8.32721
 30
0.0
 40
0
 41
0
  0
VERTEX
  8
0
 10
1.81413
 20
8.32721
 30
0.0
 40
0
 41
0
  0
VERTEX
  8
0
 10
1.81413
 20
8.32721
 30
0.0
 40
0
 41
0
  0
VERTEX
  8
0
 10
1.81939
 20
8.32704
 30
0.0
 40
0
 41
0
  0
VERTEX
  8
0
 10
1.81976
 20
8.32699
 30
0.0
 40
0
 41
0
  0
VERTEX
  8
0
 10
1.81976
 20
8.3265
 30
0.0
 40
0
 41
0
  0
VERTEX
  8
0
 10
1.82135
 20
8.32497
 30
0.0
 40
0
 41
0
  0
VERTEX
  8
0
 10
1.82303
 20
8.32622
 30
0.0
 40
0
 41
0
  0
VERTEX
  8
0
 10
1.82324
 20
8.32611
 30
0.0
 40
0
 41
0
  0
VERTEX
  8
0
 10
1.82308
 20
8.32568
 30
0.0
 40
0
 41
0
  0
VERTEX
  8
0
 10
1.82346
 20
8.32406
 30
0.0
 40
0
 41
0
  0
VERTEX
  8
0
 10
1.82493
 20
8.32508
 30
0.0
 40
0
 41
0
  0
VERTEX
  8
0
 10
1.82497
 20
8.32503
 30
0.0
 40
0
 41
0
  0
VERTEX
  8
0
 10
1.82471
 20
8.3246
 30
0.0
 40
0
 41
0
  0
VERTEX
  8
0
 10
1.82437
 20
8.32286
 30
0.0
 40
0
 41
0
  0
VERTEX
  8
0
 10
1.82563
 20
8.32351
 30
0.0
 40
0
 41
0
  0
VERTEX
  8
0
 10
1.82563
 20
8.32351
 30
0.0
 40
0
 41
0
  0
VERTEX
  8
0
 10
1.82563
 20
8.29943
 30
0.0
 40
0
 41
0
  0
VERTEX
  8
0
 10
1.84212
 20
8.29943
 30
0.0
 40
0
 41
0
  0
VERTEX
  8
0
 10
1.84212
 20
8.29943
 30
0.0
 40
0
 41
0
  0
VERTEX
  8
0
 10
1.8431
 20
8.2991
 30
0.0
 40
0
 41
0
  0
VERTEX
  8
0
 10
1.84321
 20
8.29899
 30
0.0
 40
0
 41
0
  0
VERTEX
  8
0
 10
1.84283
 20
8.29856
 30
0.0
 40
0
 41
0
  0
VERTEX
  8
0
 10
1.84196
 20
8.29693
 30
0.0
 40
0
 41
0
  0
VERTEX
  8
0
 10
1.84386
 20
8.2979
 30
0.0
 40
0
 41
0
  0
VERTEX
  8
0
 10
1.84386
 20
8.2979
 30
0.0
 40
0
 41
0
  0
VERTEX
  8
0
 10
1.84338
 20
8.29742
 30
0.0
 40
0
 41
0
  0
VERTEX
  8
0
 10
1.8425
 20
8.29542
 30
0.0
 40
0
 41
0
  0
VERTEX
  8
0
 10
1.84429
 20
8.29574
 30
0.0
 40
0
 41
0
  0
VERTEX
  8
0
 10
1.84429
 20
8.29574
 30
0.0
 40
0
 41
0
  0
VERTEX
  8
0
 10
1.84375
 20
8.29525
 30
0.0
 40
0
 41
0
  0
VERTEX
  8
0
 10
1.84272
 20
8.29303
 30
0.0
 40
0
 41
0
  0
VERTEX
  8
0
 10
1.84451
 20
8.29264
 30
0.0
 40
0
 41
0
  0
VERTEX
  8
0
 10
1.84451
 20
8.29249
 30
0.0
 40
0
 41
0
  0
VERTEX
  8
0
 10
1.84451
 20
8.29113
 30
0.0
 40
0
 41
0
  0
VERTEX
  8
0
 10
1.84397
 20
8.28737
 30
0.0
 40
0
 41
0
  0
VERTEX
  8
0
 10
1.84386
 20
8.28706
 30
0.0
 40
0
 41
0
  0
VERTEX
  8
0
 10
1.84321
 20
8.28689
 30
0.0
 40
0
 41
0
  0
VERTEX
  8
0
 10
1.84142
 20
8.28575
 30
0.0
 40
0
 41
0
  0
VERTEX
  8
0
 10
1.84212
 20
8.28554
 30
0.0
 40
0
 41
0
  0
VERTEX
  8
0
 10
1.84212
 20
8.28554
 30
0.0
 40
0
 41
0
  0
VERTEX
  8
0
 10
1.82563
 20
8.28554
 30
0.0
 40
0
 41
0
  0
VERTEX
  8
0
 10
1.82563
 20
8.23497
 30
0.0
 40
0
 41
0
  0
VERTEX
  8
0
 10
1.82488
 20
8.23301
 30
0.0
 40
0
 41
0
  0
VERTEX
  8
0
 10
1.82497
 20
8.22613
 30
0.0
 40
0
 41
0
  0
VERTEX
  8
0
 10
1.82726
 20
8.22168
 30
0.0
 40
0
 41
0
  0
VERTEX
  8
0
 10
1.82758
 20
8.22086
 30
0.0
 40
0
 41
0
  0
VERTEX
  8
0
 10
1.82721
 20
8.22017
 30
0.0
 40
0
 41
0
  0
VERTEX
  8
0
 10
1.82894
 20
8.21669
 30
0.0
 40
0
 41
0
  0
VERTEX
  8
0
 10
1.83328
 20
8.2161
 30
0.0
 40
0
 41
0
  0
VERTEX
  8
0
 10
1.83475
 20
8.2161
 30
0.0
 40
0
 41
0
  0
VERTEX
  8
0
 10
1.83475
 20
8.2161
 30
0.0
 40
0
 41
0
  0
VERTEX
  8
0
 10
1.83735
 20
8.21647
 30
0.0
 40
0
 41
0
  0
VERTEX
  8
0
 10
1.83757
 20
8.21653
 30
0.0
 40
0
 41
0
  0
VERTEX
  8
0
 10
1.83757
 20
8.21653
 30
0.0
 40
0
 41
0
  0
VERTEX
  8
0
 10
1.83957
 20
8.21733
 30
0.0
 40
0
 41
0
  0
VERTEX
  8
0
 10
1.83974
 20
8.21739
 30
0.0
 40
0
 41
0
  0
VERTEX
  8
0
 10
1.83974
 20
8.21739
 30
0.0
 40
0
 41
0
  0
VERTEX
  8
0
 10
1.84136
 20
8.21843
 30
0.0
 40
0
 41
0
  0
VERTEX
  8
0
 10
1.84147
 20
8.21847
 30
0.0
 40
0
 41
0
  0
VERTEX
  8
0
 10
1.84147
 20
8.21847
 30
0.0
 40
0
 41
0
  0
VERTEX
  8
0
 10
1.84278
 20
8.21892
 30
0.0
 40
0
 41
0
  0
VERTEX
  8
0
 10
1.84278
 20
8.21892
 30
0.0
 40
0
 41
0
  0
VERTEX
  8
0
 10
1.84244
 20
8.21886
 30
0.0
 40
0
 41
0
  0
VERTEX
  8
0
 10
1.84158
 20
8.21847
 30
0.0
 40
0
 41
0
  0
VERTEX
  8
0
 10
1.84338
 20
8.21858
 30
0.0
 40
0
 41
0
  0
VERTEX
  8
0
 10
1.84343
 20
8.21847
 30
0.0
 40
0
 41
0
  0
VERTEX
  8
0
 10
1.8431
 20
8.21843
 30
0.0
 40
0
 41
0
  0
VERTEX
  8
0
 10
1.84218
 20
8.21789
 30
0.0
 40
0
 41
0
  0
VERTEX
  8
0
 10
1.84403
 20
8.21772
 30
0.0
 40
0
 41
0
  0
VERTEX
  8
0
 10
1.84407
 20
8.21761
 30
0.0
 40
0
 41
0
  0
VERTEX
  8
0
 10
1.84364
 20
8.21756
 30
0.0
 40
0
 41
0
  0
VERTEX
  8
0
 10
1.84256
 20
8.21664
 30
0.0
 40
0
 41
0
  0
VERTEX
  8
0
 10
1.84429
 20
8.21593
 30
0.0
 40
0
 41
0
  0
VERTEX
  8
0
 10
1.84429
 20
8.21565
 30
0.0
 40
0
 41
0
  0
VERTEX
  8
0
 10
1.84375
 20
8.21506
 30
0.0
 40
0
 41
0
  0
VERTEX
  8
0
 10
1.84272
 20
8.21272
 30
0.0
 40
0
 41
0
  0
VERTEX
  8
0
 10
1.84451
 20
8.21283
 30
0.0
 40
0
 41
0
  0
VERTEX
  8
0
 10
1.84451
 20
8.21283
 30
0.0
 40
0
 41
0
  0
SEQEND
 8
0
  0
POLYLINE
  8
0
 62
     0
 66
     1
 10
0
 20
0
 30
0.0
 70
     1
 40
0
 41
0
  0
VERTEX
  8
0
 10
1.9515
 20
8.25146
 30
0.0
 40
0
 41
0
  0
VERTEX
  8
0
 10
1.9515
 20
8.25
 30
0.0
 40
0
 41
0
  0
VERTEX
  8
0
 10
1.94988
 20
8.24593
 30
0.0
 40
0
 41
0
  0
VERTEX
  8
0
 10
1.94954
 20
8.24561
 30
0.0
 40
0
 41
0
  0
VERTEX
  8
0
 10
1.94868
 20
8.24533
 30
0.0
 40
0
 41
0
  0
VERTEX
  8
0
 10
1.94618
 20
8.24408
 30
0.0
 40
0
 41
0
  0
VERTEX
  8
0
 10
1.94575
 20
8.24388
 30
0.0
 40
0
 41
0
  0
VERTEX
  8
0
 10
1.94564
 20
8.24388
 30
0.0
 40
0
 41
0
  0
VERTEX
  8
0
 10
1.89117
 20
8.24388
 30
0.0
 40
0
 41
0
  0
VERTEX
  8
0
 10
1.8904
 20
8.24283
 30
0.0
 40
0
 41
0
  0
VERTEX
  8
0
 10
1.89242
 20
8.23324
 30
0.0
 40
0
 41
0
  0
VERTEX
  8
0
 10
1.89268
 20
8.23236
 30
0.0
 40
0
 41
0
  0
VERTEX
  8
0
 10
1.89214
 20
8.23156
 30
0.0
 40
0
 41
0
  0
VERTEX
  8
0
 10
1.89328
 20
8.22743
 30
0.0
 40
0
 41
0
  0
VERTEX
  8
0
 10
1.89692
 20
8.22433
 30
0.0
 40
0
 41
0
  0
VERTEX
  8
0
 10
1.89746
 20
8.22368
 30
0.0
 40
0
 41
0
  0
VERTEX
  8
0
 10
1.89789
 20
8.22244
 30
0.0
 40
0
 41
0
  0
VERTEX
  8
0
 10
1.90543
 20
8.21838
 30
0.0
 40
0
 41
0
  0
VERTEX
  8
0
 10
1.90636
 20
8.21804
 30
0.0
 40
0
 41
0
  0
VERTEX
  8
0
 10
1.90642
 20
8.21756
 30
0.0
 40
0
 41
0
  0
VERTEX
  8
0
 10
1.91118
 20
8.21636
 30
0.0
 40
0
 41
0
  0
VERTEX
  8
0
 10
1.91764
 20
8.2161
 30
0.0
 40
0
 41
0
  0
VERTEX
  8
0
 10
1.91982
 20
8.2161
 30
0.0
 40
0
 41
0
  0
VERTEX
  8
0
 10
1.92258
 20
8.2161
 30
0.0
 40
0
 41
0
  0
VERTEX
  8
0
 10
1.92876
 20
8.2161
 30
0.0
 40
0
 41
0
  0
VERTEX
  8
0
 10
1.93087
 20
8.2161
 30
0.0
 40
0
 41
0
  0
VERTEX
  8
0
 10
1.933
 20
8.2161
 30
0.0
 40
0
 41
0
  0
VERTEX
  8
0
 10
1.93772
 20
8.2161
 30
0.0
 40
0
 41
0
  0
VERTEX
  8
0
 10
1.93935
 20
8.2161
 30
0.0
 40
0
 41
0
  0
VERTEX
  8
0
 10
1.94081
 20
8.2161
 30
0.0
 40
0
 41
0
  0
VERTEX
  8
0
 10
1.94407
 20
8.2161
 30
0.0
 40
0
 41
0
  0
VERTEX
  8
0
 10
1.94521
 20
8.2161
 30
0.0
 40
0
 41
0
  0
VERTEX
  8
0
 10
1.94521
 20
8.2161
 30
0.0
 40
0
 41
0
  0
VERTEX
  8
0
 10
1.94797
 20
8.2161
 30
0.0
 40
0
 41
0
  0
VERTEX
  8
0
 10
1.94889
 20
8.2161
 30
0.0
 40
0
 41
0
  0
VERTEX
  8
0
 10
1.94889
 20
8.2161
 30
0.0
 40
0
 41
0
  0
VERTEX
  8
0
 10
1.94988
 20
8.21576
 30
0.0
 40
0
 41
0
  0
VERTEX
  8
0
 10
1.94997
 20
8.21565
 30
0.0
 40
0
 41
0
  0
VERTEX
  8
0
 10
1.9496
 20
8.21522
 30
0.0
 40
0
 41
0
  0
VERTEX
  8
0
 10
1.94894
 20
8.2136
 30
0.0
 40
0
 41
0
  0
VERTEX
  8
0
 10
1.95085
 20
8.21457
 30
0.0
 40
0
 41
0
  0
VERTEX
  8
0
 10
1.95085
 20
8.21457
 30
0.0
 40
0
 41
0
  0
VERTEX
  8
0
 10
1.95042
 20
8.21408
 30
0.0
 40
0
 41
0
  0
VERTEX
  8
0
 10
1.94949
 20
8.21224
 30
0.0
 40
0
 41
0
  0
VERTEX
  8
0
 10
1.95128
 20
8.21263
 30
0.0
 40
0
 41
0
  0
VERTEX
  8
0
 10
1.95128
 20
8.21263
 30
0.0
 40
0
 41
0
  0
VERTEX
  8
0
 10
1.95074
 20
8.21213
 30
0.0
 40
0
 41
0
  0
VERTEX
  8
0
 10
1.94971
 20
8.20985
 30
0.0
 40
0
 41
0
  0
VERTEX
  8
0
 10
1.9515
 20
8.20953
 30
0.0
 40
0
 41
0
  0
VERTEX
  8
0
 10
1.9515
 20
8.20936
 30
0.0
 40
0
 41
0
  0
VERTEX
  8
0
 10
1.9515
 20
8.20876
 30
0.0
 40
0
 41
0
  0
VERTEX
  8
0
 10
1.95128
 20
8.20719
 30
0.0
 40
0
 41
0
  0
VERTEX
  8
0
 10
1.95128
 20
8.20697
 30
0.0
 40
0
 41
0
  0
VERTEX
  8
0
 10
1.95074
 20
8.20676
 30
0.0
 40
0
 41
0
  0
VERTEX
  8
0
 10
1.94949
 20
8.20551
 30
0.0
 40
0
 41
0
  0
VERTEX
  8
0
 10
1.95107
 20
8.20524
 30
0.0
 40
0
 41
0
  0
VERTEX
  8
0
 10
1.95107
 20
8.20524
 30
0.0
 40
0
 41
0
  0
VERTEX
  8
0
 10
1.95057
 20
8.20514
 30
0.0
 40
0
 41
0
  0
VERTEX
  8
0
 10
1.94922
 20
8.20421
 30
0.0
 40
0
 41
0
  0
VERTEX
  8
0
 10
1.95063
 20
8.20394
 30
0.0
 40
0
 41
0
  0
VERTEX
  8
0
 10
1.95063
 20
8.20394
 30
0.0
 40
0
 41
0
  0
VERTEX
  8
0
 10
1.95003
 20
8.20383
 30
0.0
 40
0
 41
0
  0
VERTEX
  8
0
 10
1.94846
 20
8.20307
 30
0.0
 40
0
 41
0
  0
VERTEX
  8
0
 10
1.94954
 20
8.20264
 30
0.0
 40
0
 41
0
  0
VERTEX
  8
0
 10
1.94954
 20
8.20264
 30
0.0
 40
0
 41
0
  0
VERTEX
  8
0
 10
1.94874
 20
8.20258
 30
0.0
 40
0
 41
0
  0
VERTEX
  8
0
 10
1.94689
 20
8.20221
 30
0.0
 40
0
 41
0
  0
VERTEX
  8
0
 10
1.94629
 20
8.20221
 30
0.0
 40
0
 41
0
  0
VERTEX
  8
0
 10
1.94444
 20
8.20221
 30
0.0
 40
0
 41
0
  0
VERTEX
  8
0
 10
1.94026
 20
8.20221
 30
0.0
 40
0
 41
0
  0
VERTEX
  8
0
 10
1.93892
 20
8.20221
 30
0.0
 40
0
 41
0
  0
VERTEX
  8
0
 10
1.93625
 20
8.20221
 30
0.0
 40
0
 41
0
  0
VERTEX
  8
0
 10
1.93024
 20
8.20221
 30
0.0
 40
0
 41
0
  0
VERTEX
  8
0
 10
1.92828
 20
8.20221
 30
0.0
 40
0
 41
0
  0
VERTEX
  8
0
 10
1.92512
 20
8.20221
 30
0.0
 40
0
 41
0
  0
VERTEX
  8
0
 10
1.91803
 20
8.20221
 30
0.0
 40
0
 41
0
  0
VERTEX
  8
0
 10
1.91569
 20
8.20221
 30
0.0
 40
0
 41
0
  0
VERTEX
  8
0
 10
1.91054
 20
8.20221
 30
0.0
 40
0
 41
0
  0
VERTEX
  8
0
 10
1.89654
 20
8.20475
 30
0.0
 40
0
 41
0
  0
VERTEX
  8
0
 10
1.89507
 20
8.20524
 30
0.0
 40
0
 41
0
  0
VERTEX
  8
0
 10
1.89258
 20
8.20551
 30
0.0
 40
0
 41
0
  0
VERTEX
  8
0
 10
1.88536
 20
8.20861
 30
0.0
 40
0
 41
0
  0
VERTEX
  8
0
 10
1.88129
 20
8.21317
 30
0.0
 40
0
 41
0
  0
VERTEX
  8
0
 10
1.88032
 20
8.21414
 30
0.0
 40
0
 41
0
  0
VERTEX
  8
0
 10
1.87858
 20
8.21414
 30
0.0
 40
0
 41
0
  0
VERTEX
  8
0
 10
1.87343
 20
8.21951
 30
0.0
 40
0
 41
0
  0
VERTEX
  8
0
 10
1.87169
 20
8.22781
 30
0.0
 40
0
 41
0
  0
VERTEX
  8
0
 10
1.87121
 20
8.22933
 30
0.0
 40
0
 41
0
  0
VERTEX
  8
0
 10
1.87044
 20
8.22976
 30
0.0
 40
0
 41
0
  0
VERTEX
  8
0
 10
1.86854
 20
8.23753
 30
0.0
 40
0
 41
0
  0
VERTEX
  8
0
 10
1.86817
 20
8.24718
 30
0.0
 40
0
 41
0
  0
VERTEX
  8
0
 10
1.86817
 20
8.25037
 30
0.0
 40
0
 41
0
  0
VERTEX
  8
0
 10
1.86817
 20
8.25549
 30
0.0
 40
0
 41
0
  0
VERTEX
  8
0
 10
1.87067
 20
8.26932
 30
0.0
 40
0
 41
0
  0
VERTEX
  8
0
 10
1.87121
 20
8.27078
 30
0.0
 40
0
 41
0
  0
VERTEX
  8
0
 10
1.87142
 20
8.27121
 30
0.0
 40
0
 41
0
  0
VERTEX
  8
0
 10
1.87446
 20
8.27756
 30
0.0
 40
0
 41
0
  0
VERTEX
  8
0
 10
1.8789
 20
8.28515
 30
0.0
 40
0
 41
0
  0
VERTEX
  8
0
 10
1.87989
 20
8.28618
 30
0.0
 40
0
 41
0
  0
VERTEX
  8
0
 10
1.87983
 20
8.28722
 30
0.0
 40
0
 41
0
  0
VERTEX
  8
0
 10
1.8846
 20
8.29183
 30
0.0
 40
0
 41
0
  0
VERTEX
  8
0
 10
1.89219
 20
8.29542
 30
0.0
 40
0
 41
0
  0
VERTEX
  8
0
 10
1.89356
 20
8.29596
 30
0.0
 40
0
 41
0
  0
VERTEX
  8
0
 10
1.89393
 20
8.29568
 30
0.0
 40
0
 41
0
  0
VERTEX
  8
0
 10
1.90061
 20
8.29725
 30
0.0
 40
0
 41
0
  0
VERTEX
  8
0
 10
1.90881
 20
8.29943
 30
0.0
 40
0
 41
0
  0
VERTEX
  8
0
 10
1.91157
 20
8.29943
 30
0.0
 40
0
 41
0
  0
VERTEX
  8
0
 10
1.91612
 20
8.29943
 30
0.0
 40
0
 41
0
  0
VERTEX
  8
0
 10
1.92854
 20
8.29639
 30
0.0
 40
0
 41
0
  0
VERTEX
  8
0
 10
1.92979
 20
8.29574
 30
0.0
 40
0
 41
0
  0
VERTEX
  8
0
 10
1.93056
 20
8.29432
 30
0.0
 40
0
 41
0
  0
VERTEX
  8
0
 10
1.94135
 20
8.28722
 30
0.0
 40
0
 41
0
  0
VERTEX
  8
0
 10
1.94217
 20
8.28618
 30
0.0
 40
0
 41
0
  0
VERTEX
  8
0
 10
1.94254
 20
8.28515
 30
0.0
 40
0
 41
0
  0
VERTEX
  8
0
 10
1.94874
 20
8.27328
 30
0.0
 40
0
 41
0
  0
VERTEX
  8
0
 10
1.94911
 20
8.27186
 30
0.0
 40
0
 41
0
  0
VERTEX
  8
0
 10
1.94851
 20
8.27051
 30
0.0
 40
0
 41
0
  0
VERTEX
  8
0
 10
1.9515
 20
8.25851
 30
0.0
 40
0
 41
0
  0
VERTEX
  8
0
 10
1.9515
 20
8.2545
 30
0.0
 40
0
 41
0
  0
VERTEX
  8
0
 10
1.9515
 20
8.25146
 30
0.0
 40
0
 41
0
  0
SEQEND
 8
0
  0
POLYLINE
  8
0
 62
     0
 66
     1
 10
0
 20
0
 30
0.0
 70
     1
 40
0
 41
0
  0
VERTEX
  8
0
 10
1.92871
 20
8.25776
 30
0.0
 40
0
 41
0
  0
VERTEX
  8
0
 10
1.92833
 20
8.25993
 30
0.0
 40
0
 41
0
  0
VERTEX
  8
0
 10
1.92512
 20
8.27696
 30
0.0
 40
0
 41
0
  0
VERTEX
  8
0
 10
1.92437
 20
8.27815
 30
0.0
 40
0
 41
0
  0
VERTEX
  8
0
 10
1.9235
 20
8.27886
 30
0.0
 40
0
 41
0
  0
VERTEX
  8
0
 10
1.91374
 20
8.28554
 30
0.0
 40
0
 41
0
  0
VERTEX
  8
0
 10
1.91049
 20
8.28554
 30
0.0
 40
0
 41
0
  0
VERTEX
  8
0
 10
1.90842
 20
8.28554
 30
0.0
 40
0
 41
0
  0
VERTEX
  8
0
 10
1.90278
 20
8.28358
 30
0.0
 40
0
 41
0
  0
VERTEX
  8
0
 10
1.90224
 20
8.28315
 30
0.0
 40
0
 41
0
  0
VERTEX
  8
0
 10
1.90132
 20
8.28212
 30
0.0
 40
0
 41
0
  0
VERTEX
  8
0
 10
1.89822
 20
8.27914
 30
0.0
 40
0
 41
0
  0
VERTEX
  8
0
 10
1.89671
 20
8.27767
 30
0.0
 40
0
 41
0
  0
VERTEX
  8
0
 10
1.89638
 20
8.27707
 30
0.0
 40
0
 41
0
  0
VERTEX
  8
0
 10
1.89594
 20
8.27604
 30
0.0
 40
0
 41
0
  0
VERTEX
  8
0
 10
1.8929
 20
8.26904
 30
0.0
 40
0
 41
0
  0
VERTEX
  8
0
 10
1.89268
 20
8.26818
 30
0.0
 40
0
 41
0
  0
VERTEX
  8
0
 10
1.89176
 20
8.26682
 30
0.0
 40
0
 41
0
  0
VERTEX
  8
0
 10
1.89031
 20
8.26178
 30
0.0
 40
0
 41
0
  0
VERTEX
  8
0
 10
1.89117
 20
8.25868
 30
0.0
 40
0
 41
0
  0
VERTEX
  8
0
 10
1.89117
 20
8.25776
 30
0.0
 40
0
 41
0
  0
VERTEX
  8
0
 10
1.92871
 20
8.25776
 30
0.0
 40
0
 41
0
  0
SEQEND
 8
0
  0
POLYLINE
  8
0
 62
     0
 66
     1
 10
0
 20
0
 30
0.0
 70
     1
 40
0
 41
0
  0
VERTEX
  8
0
 10
2.02078
 20
8.2901
 30
0.0
 40
0
 41
0
  0
VERTEX
  8
0
 10
2.02078
 20
8.28928
 30
0.0
 40
0
 41
0
  0
VERTEX
  8
0
 10
2.02056
 20
8.28706
 30
0.0
 40
0
 41
0
  0
VERTEX
  8
0
 10
2.02056
 20
8.28683
 30
0.0
 40
0
 41
0
  0
VERTEX
  8
0
 10
2.02001
 20
8.28674
 30
0.0
 40
0
 41
0
  0
VERTEX
  8
0
 10
2.01878
 20
8.28549
 30
0.0
 40
0
 41
0
  0
VERTEX
  8
0
 10
2.02035
 20
8.28478
 30
0.0
 40
0
 41
0
  0
VERTEX
  8
0
 10
2.02035
 20
8.28467
 30
0.0
 40
0
 41
0
  0
VERTEX
  8
0
 10
2.01981
 20
8.28418
 30
0.0
 40
0
 41
0
  0
VERTEX
  8
0
 10
2.01833
 20
8.28244
 30
0.0
 40
0
 41
0
  0
VERTEX
  8
0
 10
2.01969
 20
8.28358
 30
0.0
 40
0
 41
0
  0
VERTEX
  8
0
 10
2.01969
 20
8.28358
 30
0.0
 40
0
 41
0
  0
VERTEX
  8
0
 10
2.01915
 20
8.28315
 30
0.0
 40
0
 41
0
  0
VERTEX
  8
0
 10
2.01758
 20
8.28179
 30
0.0
 40
0
 41
0
  0
VERTEX
  8
0
 10
2.01861
 20
8.28315
 30
0.0
 40
0
 41
0
  0
VERTEX
  8
0
 10
2.01861
 20
8.28315
 30
0.0
 40
0
 41
0
  0
VERTEX
  8
0
 10
2.01807
 20
8.28271
 30
0.0
 40
0
 41
0
  0
VERTEX
  8
0
 10
2.01617
 20
8.28185
 30
0.0
 40
0
 41
0
  0
VERTEX
  8
0
 10
2.01671
 20
8.28358
 30
0.0
 40
0
 41
0
  0
VERTEX
  8
0
 10
2.01665
 20
8.28358
 30
0.0
 40
0
 41
0
  0
VERTEX
  8
0
 10
2.01622
 20
8.28321
 30
0.0
 40
0
 41
0
  0
VERTEX
  8
0
 10
2.01438
 20
8.28256
 30
0.0
 40
0
 41
0
  0
VERTEX
  8
0
 10
2.01443
 20
8.2844
 30
0.0
 40
0
 41
0
  0
VERTEX
  8
0
 10
2.01426
 20
8.28444
 30
0.0
 40
0
 41
0
  0
VERTEX
  8
0
 10
2.01389
 20
8.28401
 30
0.0
 40
0
 41
0
  0
VERTEX
  8
0
 10
2.01187
 20
8.28326
 30
0.0
 40
0
 41
0
  0
VERTEX
  8
0
 10
2.01144
 20
8.2851
 30
0.0
 40
0
 41
0
  0
VERTEX
  8
0
 10
2.01124
 20
8.2851
 30
0.0
 40
0
 41
0
  0
VERTEX
  8
0
 10
2.0109
 20
8.28461
 30
0.0
 40
0
 41
0
  0
VERTEX
  8
0
 10
2.00906
 20
8.28375
 30
0.0
 40
0
 41
0
  0
VERTEX
  8
0
 10
2.00825
 20
8.28554
 30
0.0
 40
0
 41
0
  0
VERTEX
  8
0
 10
2.00797
 20
8.28554
 30
0.0
 40
0
 41
0
  0
VERTEX
  8
0
 10
2.00683
 20
8.28554
 30
0.0
 40
0
 41
0
  0
VERTEX
  8
0
 10
2.00375
 20
8.28467
 30
0.0
 40
0
 41
0
  0
VERTEX
  8
0
 10
2.00342
 20
8.28444
 30
0.0
 40
0
 41
0
  0
VERTEX
  8
0
 10
2.00261
 20
8.28364
 30
0.0
 40
0
 41
0
  0
VERTEX
  8
0
 10
1.99983
 20
8.28147
 30
0.0
 40
0
 41
0
  0
VERTEX
  8
0
 10
1.99903
 20
8.28119
 30
0.0
 40
0
 41
0
  0
VERTEX
  8
0
 10
1.99886
 20
8.28097
 30
0.0
 40
0
 41
0
  0
VERTEX
  8
0
 10
1.9981
 20
8.28006
 30
0.0
 40
0
 41
0
  0
VERTEX
  8
0
 10
1.99567
 20
8.27718
 30
0.0
 40
0
 41
0
  0
VERTEX
  8
0
 10
1.99425
 20
8.27533
 30
0.0
 40
0
 41
0
  0
VERTEX
  8
0
 10
1.99388
 20
8.27468
 30
0.0
 40
0
 41
0
  0
VERTEX
  8
0
 10
1.99333
 20
8.27382
 30
0.0
 40
0
 41
0
  0
VERTEX
  8
0
 10
1.98856
 20
8.26611
 30
0.0
 40
0
 41
0
  0
VERTEX
  8
0
 10
1.98801
 20
8.26514
 30
0.0
 40
0
 41
0
  0
VERTEX
  8
0
 10
1.98801
 20
8.20524
 30
0.0
 40
0
 41
0
  0
VERTEX
  8
0
 10
1.98774
 20
8.20514
 30
0.0
 40
0
 41
0
  0
VERTEX
  8
0
 10
1.98747
 20
8.20404
 30
0.0
 40
0
 41
0
  0
VERTEX
  8
0
 10
1.98736
 20
8.20394
 30
0.0
 40
0
 41
0
  0
VERTEX
  8
0
 10
1.98687
 20
8.20383
 30
0.0
 40
0
 41
0
  0
VERTEX
  8
0
 10
1.98583
 20
8.20318
 30
0.0
 40
0
 41
0
  0
VERTEX
  8
0
 10
1.98562
 20
8.20307
 30
0.0
 40
0
 41
0
  0
VERTEX
  8
0
 10
1.98486
 20
8.20296
 30
0.0
 40
0
 41
0
  0
VERTEX
  8
0
 10
1.98247
 20
8.20247
 30
0.0
 40
0
 41
0
  0
VERTEX
  8
0
 10
1.98215
 20
8.20242
 30
0.0
 40
0
 41
0
  0
VERTEX
  8
0
 10
1.9815
 20
8.20236
 30
0.0
 40
0
 41
0
  0
VERTEX
  8
0
 10
1.97775
 20
8.20221
 30
0.0
 40
0
 41
0
  0
VERTEX
  8
0
 10
1.97651
 20
8.20221
 30
0.0
 40
0
 41
0
  0
VERTEX
  8
0
 10
1.97515
 20
8.20221
 30
0.0
 40
0
 41
0
  0
VERTEX
  8
0
 10
1.9714
 20
8.20242
 30
0.0
 40
0
 41
0
  0
VERTEX
  8
0
 10
1.97108
 20
8.20242
 30
0.0
 40
0
 41
0
  0
VERTEX
  8
0
 10
1.97021
 20
8.20247
 30
0.0
 40
0
 41
0
  0
VERTEX
  8
0
 10
1.96761
 20
8.20301
 30
0.0
 40
0
 41
0
  0
VERTEX
  8
0
 10
1.96739
 20
8.20307
 30
0.0
 40
0
 41
0
  0
VERTEX
  8
0
 10
1.96696
 20
8.20307
 30
0.0
 40
0
 41
0
  0
VERTEX
  8
0
 10
1.96571
 20
8.20389
 30
0.0
 40
0
 41
0
  0
VERTEX
  8
0
 10
1.96565
 20
8.20394
 30
0.0
 40
0
 41
0
  0
VERTEX
  8
0
 10
1.96565
 20
8.20394
 30
0.0
 40
0
 41
0
  0
VERTEX
  8
0
 10
1.96522
 20
8.20492
 30
0.0
 40
0
 41
0
  0
VERTEX
  8
0
 10
1.96522
 20
8.20524
 30
0.0
 40
0
 41
0
  0
VERTEX
  8
0
 10
1.96522
 20
8.29639
 30
0.0
 40
0
 41
0
  0
VERTEX
  8
0
 10
1.96522
 20
8.29639
 30
0.0
 40
0
 41
0
  0
VERTEX
  8
0
 10
1.96556
 20
8.29742
 30
0.0
 40
0
 41
0
  0
VERTEX
  8
0
 10
1.96565
 20
8.29747
 30
0.0
 40
0
 41
0
  0
VERTEX
  8
0
 10
1.96565
 20
8.29747
 30
0.0
 40
0
 41
0
  0
VERTEX
  8
0
 10
1.96696
 20
8.2985
 30
0.0
 40
0
 41
0
  0
VERTEX
  8
0
 10
1.96718
 20
8.29856
 30
0.0
 40
0
 41
0
  0
VERTEX
  8
0
 10
1.96718
 20
8.29829
 30
0.0
 40
0
 41
0
  0
VERTEX
  8
0
 10
1.96838
 20
8.29742
 30
0.0
 40
0
 41
0
  0
VERTEX
  8
0
 10
1.96989
 20
8.29921
 30
0.0
 40
0
 41
0
  0
VERTEX
  8
0
 10
1.97043
 20
8.29921
 30
0.0
 40
0
 41
0
  0
VERTEX
  8
0
 10
1.97038
 20
8.29889
 30
0.0
 40
0
 41
0
  0
VERTEX
  8
0
 10
1.97206
 20
8.29769
 30
0.0
 40
0
 41
0
  0
VERTEX
  8
0
 10
1.97472
 20
8.29943
 30
0.0
 40
0
 41
0
  0
VERTEX
  8
0
 10
1.97564
 20
8.29943
 30
0.0
 40
0
 41
0
  0
VERTEX
  8
0
 10
1.97564
 20
8.29943
 30
0.0
 40
0
 41
0
  0
VERTEX
  8
0
 10
1.98031
 20
8.29926
 30
0.0
 40
0
 41
0
  0
VERTEX
  8
0
 10
1.98062
 20
8.29921
 30
0.0
 40
0
 41
0
  0
VERTEX
  8
0
 10
1.98068
 20
8.29872
 30
0.0
 40
0
 41
0
  0
VERTEX
  8
0
 10
1.98215
 20
8.29736
 30
0.0
 40
0
 41
0
  0
VERTEX
  8
0
 10
1.98351
 20
8.29867
 30
0.0
 40
0
 41
0
  0
VERTEX
  8
0
 10
1.98367
 20
8.29856
 30
0.0
 40
0
 41
0
  0
VERTEX
  8
0
 10
1.98356
 20
8.29807
 30
0.0
 40
0
 41
0
  0
VERTEX
  8
0
 10
1.98415
 20
8.29644
 30
0.0
 40
0
 41
0
  0
VERTEX
  8
0
 10
1.9854
 20
8.29747
 30
0.0
 40
0
 41
0
  0
VERTEX
  8
0
 10
1.9854
 20
8.29747
 30
0.0
 40
0
 41
0
  0
VERTEX
  8
0
 10
1.98519
 20
8.29704
 30
0.0
 40
0
 41
0
  0
VERTEX
  8
0
 10
1.98492
 20
8.29551
 30
0.0
 40
0
 41
0
  0
VERTEX
  8
0
 10
1.98583
 20
8.29639
 30
0.0
 40
0
 41
0
  0
VERTEX
  8
0
 10
1.98583
 20
8.29639
 30
0.0
 40
0
 41
0
  0
VERTEX
  8
0
 10
1.98583
 20
8.28315
 30
0.0
 40
0
 41
0
  0
VERTEX
  8
0
 10
1.98583
 20
8.28315
 30
0.0
 40
0
 41
0
  0
VERTEX
  8
0
 10
1.98833
 20
8.28618
 30
0.0
 40
0
 41
0
  0
VERTEX
  8
0
 10
1.99181
 20
8.29069
 30
0.0
 40
0
 41
0
  0
VERTEX
  8
0
 10
1.99235
 20
8.29118
 30
0.0
 40
0
 41
0
  0
VERTEX
  8
0
 10
1.99235
 20
8.29118
 30
0.0
 40
0
 41
0
  0
VERTEX
  8
0
 10
1.9936
 20
8.29335
 30
0.0
 40
0
 41
0
  0
VERTEX
  8
0
 10
1.99756
 20
8.2959
 30
0.0
 40
0
 41
0
  0
VERTEX
  8
0
 10
1.99799
 20
8.29617
 30
0.0
 40
0
 41
0
  0
VERTEX
  8
0
 10
1.99799
 20
8.29617
 30
0.0
 40
0
 41
0
  0
VERTEX
  8
0
 10
1.99994
 20
8.2965
 30
0.0
 40
0
 41
0
  0
VERTEX
  8
0
 10
2.00276
 20
8.29867
 30
0.0
 40
0
 41
0
  0
VERTEX
  8
0
 10
2.00319
 20
8.29878
 30
0.0
 40
0
 41
0
  0
VERTEX
  8
0
 10
2.00315
 20
8.29867
 30
0.0
 40
0
 41
0
  0
VERTEX
  8
0
 10
2.00467
 20
8.29764
 30
0.0
 40
0
 41
0
  0
VERTEX
  8
0
 10
2.0076
 20
8.29943
 30
0.0
 40
0
 41
0
  0
VERTEX
  8
0
 10
2.00863
 20
8.29943
 30
0.0
 40
0
 41
0
  0
VERTEX
  8
0
 10
2.00933
 20
8.29943
 30
0.0
 40
0
 41
0
  0
VERTEX
  8
0
 10
2.01118
 20
8.29926
 30
0.0
 40
0
 41
0
  0
VERTEX
  8
0
 10
2.01144
 20
8.29921
 30
0.0
 40
0
 41
0
  0
VERTEX
  8
0
 10
2.01139
 20
8.29883
 30
0.0
 40
0
 41
0
  0
VERTEX
  8
0
 10
2.01238
 20
8.29742
 30
0.0
 40
0
 41
0
  0
VERTEX
  8
0
 10
2.01421
 20
8.29889
 30
0.0
 40
0
 41
0
  0
VERTEX
  8
0
 10
2.01449
 20
8.29878
 30
0.0
 40
0
 41
0
  0
VERTEX
  8
0
 10
2.01432
 20
8.29839
 30
0.0
 40
0
 41
0
  0
VERTEX
  8
0
 10
2.01514
 20
8.29671
 30
0.0
 40
0
 41
0
  0
VERTEX
  8
0
 10
2.01731
 20
8.29801
 30
0.0
 40
0
 41
0
  0
VERTEX
  8
0
 10
2.01753
 20
8.2979
 30
0.0
 40
0
 41
0
  0
VERTEX
  8
0
 10
2.01725
 20
8.29753
 30
0.0
 40
0
 41
0
  0
VERTEX
  8
0
 10
2.01731
 20
8.29596
 30
0.0
 40
0
 41
0
  0
VERTEX
  8
0
 10
2.01938
 20
8.29715
 30
0.0
 40
0
 41
0
  0
VERTEX
  8
0
 10
2.01947
 20
8.29704
 30
0.0
 40
0
 41
0
  0
VERTEX
  8
0
 10
2.0191
 20
8.29665
 30
0.0
 40
0
 41
0
  0
VERTEX
  8
0
 10
2.01833
 20
8.29519
 30
0.0
 40
0
 41
0
  0
VERTEX
  8
0
 10
2.02013
 20
8.29617
 30
0.0
 40
0
 41
0
  0
VERTEX
  8
0
 10
2.02013
 20
8.29617
 30
0.0
 40
0
 41
0
  0
VERTEX
  8
0
 10
2.01969
 20
8.29585
 30
0.0
 40
0
 41
0
  0
VERTEX
  8
0
 10
2.01867
 20
8.29454
 30
0.0
 40
0
 41
0
  0
VERTEX
  8
0
 10
2.02056
 20
8.29531
 30
0.0
 40
0
 41
0
  0
VERTEX
  8
0
 10
2.02056
 20
8.29531
 30
0.0
 40
0
 41
0
  0
VERTEX
  8
0
 10
2.02007
 20
8.29492
 30
0.0
 40
0
 41
0
  0
VERTEX
  8
0
 10
2.01899
 20
8.29329
 30
0.0
 40
0
 41
0
  0
VERTEX
  8
0
 10
2.02078
 20
8.29335
 30
0.0
 40
0
 41
0
  0
VERTEX
  8
0
 10
2.02078
 20
8.29335
 30
0.0
 40
0
 41
0
  0
VERTEX
  8
0
 10
2.02078
 20
8.29254
 30
0.0
 40
0
 41
0
  0
VERTEX
  8
0
 10
2.02078
 20
8.29075
 30
0.0
 40
0
 41
0
  0
VERTEX
  8
0
 10
2.02078
 20
8.2901
 30
0.0
 40
0
 41
0
  0
SEQEND
 8
0
  0
TEXT
  8
0
 62
     0
 10
2.10233
 20
8.20222
 30
0.0
 40
0.195
  1
drain p
 50
0
  0
TEXT
  8
0
 62
     0
 10
2.65485
 20
8.20222
 30
0.0
 40
0.195
  1
lacement,
 50
0
  0
TEXT
  8
0
 62
     0
 10
3.43475
 20
8.20222
 30
0.0
 40
0.195
  1
 a
 50
0
  0
TEXT
  8
0
 62
     0
 10
3.56772
 20
8.20222
 30
0.0
 40
0.195
  1
nd Full
 50
0
  0
TEXT
  8
0
 62
     0
 10
4.08988
 20
8.20222
 30
0.0
 40
0.195
  1
 s
 50
0
  0
TEXT
  8
0
 62
     0
 10
4.20647
 20
8.20222
 30
0.0
 40
0.195
  1
pray
 50
0
  0
TEXT
  8
0
 62
     0
 10
4.5965
 20
8.20222
 30
0.0
 40
0.195
  1
sides
 50
0
  0
TEXT
  8
0
 62
     0
 10
5.02874
 20
8.20222
 30
0.0
 40
0.195
  1
and 
 50
0
  0
TEXT
  8
0
 62
     0
 10
0.199806
 20
7.96486
 30
0.0
 40
0.195
  1
bottom with Bottom and four
 50
0
  0
TEXT
  8
0
 62
     0
 10
2.55614
 20
7.96486
 30
0.0
 40
0.195
  1
sides
 50
0
  0
TEXT
  8
0
 62
     0
 10
2.94883
 20
7.96486
 30
0.0
 40
0.195
  1
 pa
 50
0
  0
TEXT
  8
0
 62
     0
 10
3.18743
 20
7.96486
 30
0.0
 40
0.195
  1
ds.  
 50
0
  0
TEXT
  8
0
 62
     0
 10
0.278333
 20
7.00833
 30
0.0
 40
0.195
  1
Ins
 50
0
  0
TEXT
  8
0
 62
     0
 10
0.503235
 20
7.00833
 30
0.0
 40
0.195
  1
t
 50
0
  0
TEXT
  8
0
 62
     0
 10
0.566588
 20
7.00833
 30
0.0
 40
0.195
  1
a
 50
0
  0
TEXT
  8
0
 62
     0
 10
0.6599
 20
7.00833
 30
0.0
 40
0.195
  1
l
 50
0
  0
TEXT
  8
0
 62
     0
 10
0.704922
 20
7.00833
 30
0.0
 40
0.195
  1
l
 50
0
  0
TEXT
  8
0
 62
     0
 10
0.749943
 20
7.00833
 30
0.0
 40
0.195
  1
a
 50
0
  0
TEXT
  8
0
 62
     0
 10
0.841599
 20
7.00833
 30
0.0
 40
0.195
  1
t
 50
0
  0
TEXT
  8
0
 62
     0
 10
0.906608
 20
7.00833
 30
0.0
 40
0.195
  1
i
 50
0
  0
TEXT
  8
0
 62
     0
 10
0.949954
 20
7.00833
 30
0.0
 40
0.195
  1
o
 50
0
  0
TEXT
  8
0
 62
     0
 10
1.0533
 20
7.00833
 30
0.0
 40
0.195
  1
n T
 50
0
  0
TEXT
  8
0
 62
     0
 10
1.28483
 20
7.00833
 30
0.0
 40
0.195
  1
y
 50
0
  0
TEXT
  8
0
 62
     0
 10
1.37316
 20
7.00833
 30
0.0
 40
0.195
  1
pe
 50
0
  0
TEXT
  8
0
 62
     0
 10
1.57135
 20
7.00833
 30
0.0
 40
0.195
  1
:
 50
0
  0
TEXT
  8
0
 62
     0
 10
2.32333
 20
7.00833
 30
0.0
 40
0.195
  1
U
 50
0
  0
TEXT
  8
0
 62
     0
 10
2.44832
 20
7.00833
 30
0.0
 40
0.195
  1
nde
 50
0
  0
TEXT
  8
0
 62
     0
 10
2.7481
 20
7.00833
 30
0.0
 40
0.195
  1
r
 50
0
  0
TEXT
  8
0
 62
     0
 10
2.81643
 20
7.00833
 30
0.0
 40
0.195
  1
mo
 50
0
  0
TEXT
  8
0
 62
     0
 10
3.07476
 20
7.00833
 30
0.0
 40
0.195
  1
un
 50
0
  0
TEXT
  8
0
 62
     0
 10
3.27629
 20
7.00833
 30
0.0
 40
0.195
  1
t
 50
0
  0
POLYLINE
  8
0
 62
     0
 66
     1
 10
0
 20
0
 30
0.0
 70
     1
 40
0
 41
0
  0
VERTEX
  8
0
 10
0.199978
 20
7.19499
 30
0.0
 40
0
 41
0
  0
VERTEX
  8
0
 10
0.206651
 20
7.19499
 30
0.0
 40
0
 41
0
  0
VERTEX
  8
0
 10
0.206651
 20
7.20167
 30
0.0
 40
0
 41
0
  0
VERTEX
  8
0
 10
0.199978
 20
7.20167
 30
0.0
 40
0
 41
0
  0
VERTEX
  8
0
 10
0.199978
 20
7.19499
 30
0.0
 40
0
 41
0
  0
SEQEND
 8
0
  0
POLYLINE
  8
0
 62
     0
 66
     1
 10
0
 20
0
 30
0.0
 70
     1
 40
0
 41
0
  0
VERTEX
  8
0
 10
0.199978
 20
7.19499
 30
0.0
 40
0
 41
0
  0
VERTEX
  8
0
 10
0.206651
 20
7.19499
 30
0.0
 40
0
 41
0
  0
VERTEX
  8
0
 10
0.206651
 20
7.20167
 30
0.0
 40
0
 41
0
  0
VERTEX
  8
0
 10
0.199978
 20
7.20167
 30
0.0
 40
0
 41
0
  0
VERTEX
  8
0
 10
0.199978
 20
7.19499
 30
0.0
 40
0
 41
0
  0
SEQEND
 8
0
  0
POLYLINE
  8
0
 62
     0
 66
     1
 10
0
 20
0
 30
0.0
 70
     1
 40
0
 41
0
  0
VERTEX
  8
0
 10
0.206651
 20
7.19499
 30
0.0
 40
0
 41
0
  0
VERTEX
  8
0
 10
2.24333
 20
7.19499
 30
0.0
 40
0
 41
0
  0
VERTEX
  8
0
 10
2.24333
 20
7.20167
 30
0.0
 40
0
 41
0
  0
VERTEX
  8
0
 10
0.206651
 20
7.20167
 30
0.0
 40
0
 41
0
  0
VERTEX
  8
0
 10
0.206651
 20
7.19499
 30
0.0
 40
0
 41
0
  0
SEQEND
 8
0
  0
POLYLINE
  8
0
 62
     0
 66
     1
 10
0
 20
0
 30
0.0
 70
     1
 40
0
 41
0
  0
VERTEX
  8
0
 10
2.24333
 20
7.19499
 30
0.0
 40
0
 41
0
  0
VERTEX
  8
0
 10
2.25
 20
7.19499
 30
0.0
 40
0
 41
0
  0
VERTEX
  8
0
 10
2.25
 20
7.20167
 30
0.0
 40
0
 41
0
  0
VERTEX
  8
0
 10
2.24333
 20
7.20167
 30
0.0
 40
0
 41
0
  0
VERTEX
  8
0
 10
2.24333
 20
7.19499
 30
0.0
 40
0
 41
0
  0
SEQEND
 8
0
  0
POLYLINE
  8
0
 62
     0
 66
     1
 10
0
 20
0
 30
0.0
 70
     1
 40
0
 41
0
  0
VERTEX
  8
0
 10
2.25
 20
7.19499
 30
0.0
 40
0
 41
0
  0
VERTEX
  8
0
 10
4.41
 20
7.19499
 30
0.0
 40
0
 41
0
  0
VERTEX
  8
0
 10
4.41
 20
7.20167
 30
0.0
 40
0
 41
0
  0
VERTEX
  8
0
 10
2.25
 20
7.20167
 30
0.0
 40
0
 41
0
  0
VERTEX
  8
0
 10
2.25
 20
7.19499
 30
0.0
 40
0
 41
0
  0
SEQEND
 8
0
  0
POLYLINE
  8
0
 62
     0
 66
     1
 10
0
 20
0
 30
0.0
 70
     1
 40
0
 41
0
  0
VERTEX
  8
0
 10
4.41
 20
7.19499
 30
0.0
 40
0
 41
0
  0
VERTEX
  8
0
 10
4.41667
 20
7.19499
 30
0.0
 40
0
 41
0
  0
VERTEX
  8
0
 10
4.41667
 20
7.20167
 30
0.0
 40
0
 41
0
  0
VERTEX
  8
0
 10
4.41
 20
7.20167
 30
0.0
 40
0
 41
0
  0
VERTEX
  8
0
 10
4.41
 20
7.19499
 30
0.0
 40
0
 41
0
  0
SEQEND
 8
0
  0
POLYLINE
  8
0
 62
     0
 66
     1
 10
0
 20
0
 30
0.0
 70
     1
 40
0
 41
0
  0
VERTEX
  8
0
 10
4.41
 20
7.19499
 30
0.0
 40
0
 41
0
  0
VERTEX
  8
0
 10
4.41667
 20
7.19499
 30
0.0
 40
0
 41
0
  0
VERTEX
  8
0
 10
4.41667
 20
7.20167
 30
0.0
 40
0
 41
0
  0
VERTEX
  8
0
 10
4.41
 20
7.20167
 30
0.0
 40
0
 41
0
  0
VERTEX
  8
0
 10
4.41
 20
7.19499
 30
0.0
 40
0
 41
0
  0
SEQEND
 8
0
  0
POLYLINE
  8
0
 62
     0
 66
     1
 10
0
 20
0
 30
0.0
 70
     1
 40
0
 41
0
  0
VERTEX
  8
0
 10
0.199978
 20
6.80165
 30
0.0
 40
0
 41
0
  0
VERTEX
  8
0
 10
0.206651
 20
6.80165
 30
0.0
 40
0
 41
0
  0
VERTEX
  8
0
 10
0.206651
 20
7.19499
 30
0.0
 40
0
 41
0
  0
VERTEX
  8
0
 10
0.199978
 20
7.19499
 30
0.0
 40
0
 41
0
  0
VERTEX
  8
0
 10
0.199978
 20
6.80165
 30
0.0
 40
0
 41
0
  0
SEQEND
 8
0
  0
POLYLINE
  8
0
 62
     0
 66
     1
 10
0
 20
0
 30
0.0
 70
     1
 40
0
 41
0
  0
VERTEX
  8
0
 10
2.24333
 20
6.80165
 30
0.0
 40
0
 41
0
  0
VERTEX
  8
0
 10
2.25
 20
6.80165
 30
0.0
 40
0
 41
0
  0
VERTEX
  8
0
 10
2.25
 20
7.19499
 30
0.0
 40
0
 41
0
  0
VERTEX
  8
0
 10
2.24333
 20
7.19499
 30
0.0
 40
0
 41
0
  0
VERTEX
  8
0
 10
2.24333
 20
6.80165
 30
0.0
 40
0
 41
0
  0
SEQEND
 8
0
  0
POLYLINE
  8
0
 62
     0
 66
     1
 10
0
 20
0
 30
0.0
 70
     1
 40
0
 41
0
  0
VERTEX
  8
0
 10
4.41
 20
6.80165
 30
0.0
 40
0
 41
0
  0
VERTEX
  8
0
 10
4.41667
 20
6.80165
 30
0.0
 40
0
 41
0
  0
VERTEX
  8
0
 10
4.41667
 20
7.19499
 30
0.0
 40
0
 41
0
  0
VERTEX
  8
0
 10
4.41
 20
7.19499
 30
0.0
 40
0
 41
0
  0
VERTEX
  8
0
 10
4.41
 20
6.80165
 30
0.0
 40
0
 41
0
  0
SEQEND
 8
0
  0
TEXT
  8
0
 62
     0
 10
0.278333
 20
6.60833
 30
0.0
 40
0.195
  1
Ma
 50
0
  0
TEXT
  8
0
 62
     0
 10
0.536689
 20
6.60833
 30
0.0
 40
0.195
  1
t
 50
0
  0
TEXT
  8
0
 62
     0
 10
0.600021
 20
6.60833
 30
0.0
 40
0.195
  1
e
 50
0
  0
TEXT
  8
0
 62
     0
 10
0.696632
 20
6.60833
 30
0.0
 40
0.195
  1
r
 50
0
  0
TEXT
  8
0
 62
     0
 10
0.764939
 20
6.60833
 30
0.0
 40
0.195
  1
i
 50
0
  0
TEXT
  8
0
 62
     0
 10
0.80994
 20
6.60833
 30
0.0
 40
0.195
  1
al
 50
0
  0
TEXT
  8
0
 62
     0
 10
0.948313
 20
6.60833
 30
0.0
 40
0.195
  1
:
 50
0
  0
TEXT
  8
0
 62
     0
 10
2.32333
 20
6.60833
 30
0.0
 40
0.195
  1
S
 50
0
  0
TEXT
  8
0
 62
     0
 10
2.41333
 20
6.60833
 30
0.0
 40
0.195
  1
U
 50
0
  0
TEXT
  8
0
 62
     0
 10
2.53836
 20
6.60833
 30
0.0
 40
0.195
  1
S
 50
0
  0
TEXT
  8
0
 62
     0
 10
2.62835
 20
6.60833
 30
0.0
 40
0.195
  1
 304
 50
0
  0
POLYLINE
  8
0
 62
     0
 66
     1
 10
0
 20
0
 30
0.0
 70
     1
 40
0
 41
0
  0
VERTEX
  8
0
 10
0.199978
 20
6.79497
 30
0.0
 40
0
 41
0
  0
VERTEX
  8
0
 10
0.206651
 20
6.79497
 30
0.0
 40
0
 41
0
  0
VERTEX
  8
0
 10
0.206651
 20
6.80165
 30
0.0
 40
0
 41
0
  0
VERTEX
  8
0
 10
0.199978
 20
6.80165
 30
0.0
 40
0
 41
0
  0
VERTEX
  8
0
 10
0.199978
 20
6.79497
 30
0.0
 40
0
 41
0
  0
SEQEND
 8
0
  0
POLYLINE
  8
0
 62
     0
 66
     1
 10
0
 20
0
 30
0.0
 70
     1
 40
0
 41
0
  0
VERTEX
  8
0
 10
0.206651
 20
6.79497
 30
0.0
 40
0
 41
0
  0
VERTEX
  8
0
 10
2.24333
 20
6.79497
 30
0.0
 40
0
 41
0
  0
VERTEX
  8
0
 10
2.24333
 20
6.80165
 30
0.0
 40
0
 41
0
  0
VERTEX
  8
0
 10
0.206651
 20
6.80165
 30
0.0
 40
0
 41
0
  0
VERTEX
  8
0
 10
0.206651
 20
6.79497
 30
0.0
 40
0
 41
0
  0
SEQEND
 8
0
  0
POLYLINE
  8
0
 62
     0
 66
     1
 10
0
 20
0
 30
0.0
 70
     1
 40
0
 41
0
  0
VERTEX
  8
0
 10
2.24333
 20
6.79497
 30
0.0
 40
0
 41
0
  0
VERTEX
  8
0
 10
2.25
 20
6.79497
 30
0.0
 40
0
 41
0
  0
VERTEX
  8
0
 10
2.25
 20
6.80165
 30
0.0
 40
0
 41
0
  0
VERTEX
  8
0
 10
2.24333
 20
6.80165
 30
0.0
 40
0
 41
0
  0
VERTEX
  8
0
 10
2.24333
 20
6.79497
 30
0.0
 40
0
 41
0
  0
SEQEND
 8
0
  0
POLYLINE
  8
0
 62
     0
 66
     1
 10
0
 20
0
 30
0.0
 70
     1
 40
0
 41
0
  0
VERTEX
  8
0
 10
2.25
 20
6.79497
 30
0.0
 40
0
 41
0
  0
VERTEX
  8
0
 10
4.41
 20
6.79497
 30
0.0
 40
0
 41
0
  0
VERTEX
  8
0
 10
4.41
 20
6.80165
 30
0.0
 40
0
 41
0
  0
VERTEX
  8
0
 10
2.25
 20
6.80165
 30
0.0
 40
0
 41
0
  0
VERTEX
  8
0
 10
2.25
 20
6.79497
 30
0.0
 40
0
 41
0
  0
SEQEND
 8
0
  0
POLYLINE
  8
0
 62
     0
 66
     1
 10
0
 20
0
 30
0.0
 70
     1
 40
0
 41
0
  0
VERTEX
  8
0
 10
4.41
 20
6.79497
 30
0.0
 40
0
 41
0
  0
VERTEX
  8
0
 10
4.41667
 20
6.79497
 30
0.0
 40
0
 41
0
  0
VERTEX
  8
0
 10
4.41667
 20
6.80165
 30
0.0
 40
0
 41
0
  0
VERTEX
  8
0
 10
4.41
 20
6.80165
 30
0.0
 40
0
 41
0
  0
VERTEX
  8
0
 10
4.41
 20
6.79497
 30
0.0
 40
0
 41
0
  0
SEQEND
 8
0
  0
POLYLINE
  8
0
 62
     0
 66
     1
 10
0
 20
0
 30
0.0
 70
     1
 40
0
 41
0
  0
VERTEX
  8
0
 10
0.199978
 20
6.55664
 30
0.0
 40
0
 41
0
  0
VERTEX
  8
0
 10
0.206651
 20
6.55664
 30
0.0
 40
0
 41
0
  0
VERTEX
  8
0
 10
0.206651
 20
6.79497
 30
0.0
 40
0
 41
0
  0
VERTEX
  8
0
 10
0.199978
 20
6.79497
 30
0.0
 40
0
 41
0
  0
VERTEX
  8
0
 10
0.199978
 20
6.55664
 30
0.0
 40
0
 41
0
  0
SEQEND
 8
0
  0
POLYLINE
  8
0
 62
     0
 66
     1
 10
0
 20
0
 30
0.0
 70
     1
 40
0
 41
0
  0
VERTEX
  8
0
 10
2.24333
 20
6.55664
 30
0.0
 40
0
 41
0
  0
VERTEX
  8
0
 10
2.25
 20
6.55664
 30
0.0
 40
0
 41
0
  0
VERTEX
  8
0
 10
2.25
 20
6.79497
 30
0.0
 40
0
 41
0
  0
VERTEX
  8
0
 10
2.24333
 20
6.79497
 30
0.0
 40
0
 41
0
  0
VERTEX
  8
0
 10
2.24333
 20
6.55664
 30
0.0
 40
0
 41
0
  0
SEQEND
 8
0
  0
POLYLINE
  8
0
 62
     0
 66
     1
 10
0
 20
0
 30
0.0
 70
     1
 40
0
 41
0
  0
VERTEX
  8
0
 10
4.41
 20
6.55664
 30
0.0
 40
0
 41
0
  0
VERTEX
  8
0
 10
4.41667
 20
6.55664
 30
0.0
 40
0
 41
0
  0
VERTEX
  8
0
 10
4.41667
 20
6.79497
 30
0.0
 40
0
 41
0
  0
VERTEX
  8
0
 10
4.41
 20
6.79497
 30
0.0
 40
0
 41
0
  0
VERTEX
  8
0
 10
4.41
 20
6.55664
 30
0.0
 40
0
 41
0
  0
SEQEND
 8
0
  0
TEXT
  8
0
 62
     0
 10
0.278333
 20
6.365
 30
0.0
 40
0.195
  1
F
 50
0
  0
TEXT
  8
0
 62
     0
 10
0.368306
 20
6.365
 30
0.0
 40
0.195
  1
i
 50
0
  0
TEXT
  8
0
 62
     0
 10
0.413328
 20
6.365
 30
0.0
 40
0.195
  1
ni
 50
0
  0
TEXT
  8
0
 62
     0
 10
0.559893
 20
6.365
 30
0.0
 40
0.195
  1
s
 50
0
  0
TEXT
  8
0
 62
     0
 10
0.636568
 20
6.365
 30
0.0
 40
0.195
  1
h:
 50
0
  0
TEXT
  8
0
 62
     0
 10
2.32333
 20
6.365
 30
0.0
 40
0.195
  1
B
 50
0
  0
TEXT
  8
0
 62
     0
 10
2.43
 20
6.365
 30
0.0
 40
0.195
  1
r
 50
0
  0
TEXT
  8
0
 62
     0
 10
2.49833
 20
6.365
 30
0.0
 40
0.195
  1
us
 50
0
  0
TEXT
  8
0
 62
     0
 10
2.67657
 20
6.365
 30
0.0
 40
0.195
  1
he
 50
0
  0
TEXT
  8
0
 62
     0
 10
2.87476
 20
6.365
 30
0.0
 40
0.195
  1
d
 50
0
  0
POLYLINE
  8
0
 62
     0
 66
     1
 10
0
 20
0
 30
0.0
 70
     1
 40
0
 41
0
  0
VERTEX
  8
0
 10
0.199978
 20
6.55003
 30
0.0
 40
0
 41
0
  0
VERTEX
  8
0
 10
0.206651
 20
6.55003
 30
0.0
 40
0
 41
0
  0
VERTEX
  8
0
 10
0.206651
 20
6.55664
 30
0.0
 40
0
 41
0
  0
VERTEX
  8
0
 10
0.199978
 20
6.55664
 30
0.0
 40
0
 41
0
  0
VERTEX
  8
0
 10
0.199978
 20
6.55003
 30
0.0
 40
0
 41
0
  0
SEQEND
 8
0
  0
POLYLINE
  8
0
 62
     0
 66
     1
 10
0
 20
0
 30
0.0
 70
     1
 40
0
 41
0
  0
VERTEX
  8
0
 10
0.206651
 20
6.55003
 30
0.0
 40
0
 41
0
  0
VERTEX
  8
0
 10
2.24333
 20
6.55003
 30
0.0
 40
0
 41
0
  0
VERTEX
  8
0
 10
2.24333
 20
6.55664
 30
0.0
 40
0
 41
0
  0
VERTEX
  8
0
 10
0.206651
 20
6.55664
 30
0.0
 40
0
 41
0
  0
VERTEX
  8
0
 10
0.206651
 20
6.55003
 30
0.0
 40
0
 41
0
  0
SEQEND
 8
0
  0
POLYLINE
  8
0
 62
     0
 66
     1
 10
0
 20
0
 30
0.0
 70
     1
 40
0
 41
0
  0
VERTEX
  8
0
 10
2.24333
 20
6.55003
 30
0.0
 40
0
 41
0
  0
VERTEX
  8
0
 10
2.25
 20
6.55003
 30
0.0
 40
0
 41
0
  0
VERTEX
  8
0
 10
2.25
 20
6.55664
 30
0.0
 40
0
 41
0
  0
VERTEX
  8
0
 10
2.24333
 20
6.55664
 30
0.0
 40
0
 41
0
  0
VERTEX
  8
0
 10
2.24333
 20
6.55003
 30
0.0
 40
0
 41
0
  0
SEQEND
 8
0
  0
POLYLINE
  8
0
 62
     0
 66
     1
 10
0
 20
0
 30
0.0
 70
     1
 40
0
 41
0
  0
VERTEX
  8
0
 10
2.25
 20
6.55003
 30
0.0
 40
0
 41
0
  0
VERTEX
  8
0
 10
4.41
 20
6.55003
 30
0.0
 40
0
 41
0
  0
VERTEX
  8
0
 10
4.41
 20
6.55664
 30
0.0
 40
0
 41
0
  0
VERTEX
  8
0
 10
2.25
 20
6.55664
 30
0.0
 40
0
 41
0
  0
VERTEX
  8
0
 10
2.25
 20
6.55003
 30
0.0
 40
0
 41
0
  0
SEQEND
 8
0
  0
POLYLINE
  8
0
 62
     0
 66
     1
 10
0
 20
0
 30
0.0
 70
     1
 40
0
 41
0
  0
VERTEX
  8
0
 10
4.41
 20
6.55003
 30
0.0
 40
0
 41
0
  0
VERTEX
  8
0
 10
4.41667
 20
6.55003
 30
0.0
 40
0
 41
0
  0
VERTEX
  8
0
 10
4.41667
 20
6.55664
 30
0.0
 40
0
 41
0
  0
VERTEX
  8
0
 10
4.41
 20
6.55664
 30
0.0
 40
0
 41
0
  0
VERTEX
  8
0
 10
4.41
 20
6.55003
 30
0.0
 40
0
 41
0
  0
SEQEND
 8
0
  0
POLYLINE
  8
0
 62
     0
 66
     1
 10
0
 20
0
 30
0.0
 70
     1
 40
0
 41
0
  0
VERTEX
  8
0
 10
0.199978
 20
6.31168
 30
0.0
 40
0
 41
0
  0
VERTEX
  8
0
 10
0.206651
 20
6.31168
 30
0.0
 40
0
 41
0
  0
VERTEX
  8
0
 10
0.206651
 20
6.55003
 30
0.0
 40
0
 41
0
  0
VERTEX
  8
0
 10
0.199978
 20
6.55003
 30
0.0
 40
0
 41
0
  0
VERTEX
  8
0
 10
0.199978
 20
6.31168
 30
0.0
 40
0
 41
0
  0
SEQEND
 8
0
  0
POLYLINE
  8
0
 62
     0
 66
     1
 10
0
 20
0
 30
0.0
 70
     1
 40
0
 41
0
  0
VERTEX
  8
0
 10
2.24333
 20
6.31168
 30
0.0
 40
0
 41
0
  0
VERTEX
  8
0
 10
2.25
 20
6.31168
 30
0.0
 40
0
 41
0
  0
VERTEX
  8
0
 10
2.25
 20
6.55003
 30
0.0
 40
0
 41
0
  0
VERTEX
  8
0
 10
2.24333
 20
6.55003
 30
0.0
 40
0
 41
0
  0
VERTEX
  8
0
 10
2.24333
 20
6.31168
 30
0.0
 40
0
 41
0
  0
SEQEND
 8
0
  0
POLYLINE
  8
0
 62
     0
 66
     1
 10
0
 20
0
 30
0.0
 70
     1
 40
0
 41
0
  0
VERTEX
  8
0
 10
4.41
 20
6.31168
 30
0.0
 40
0
 41
0
  0
VERTEX
  8
0
 10
4.41667
 20
6.31168
 30
0.0
 40
0
 41
0
  0
VERTEX
  8
0
 10
4.41667
 20
6.55003
 30
0.0
 40
0
 41
0
  0
VERTEX
  8
0
 10
4.41
 20
6.55003
 30
0.0
 40
0
 41
0
  0
VERTEX
  8
0
 10
4.41
 20
6.31168
 30
0.0
 40
0
 41
0
  0
SEQEND
 8
0
  0
TEXT
  8
0
 62
     0
 10
0.278333
 20
6.12
 30
0.0
 40
0.195
  1
G
 50
0
  0
TEXT
  8
0
 62
     0
 10
0.401638
 20
6.12
 30
0.0
 40
0.195
  1
a
 50
0
  0
TEXT
  8
0
 62
     0
 10
0.494949
 20
6.12
 30
0.0
 40
0.195
  1
u
 50
0
  0
TEXT
  8
0
 62
     0
 10
0.596588
 20
6.12
 30
0.0
 40
0.195
  1
g
 50
0
  0
TEXT
  8
0
 62
     0
 10
0.68655
 20
6.12
 30
0.0
 40
0.195
  1
e
 50
0
  0
TEXT
  8
0
 62
     0
 10
0.783181
 20
6.12
 30
0.0
 40
0.195
  1
:
 50
0
  0
TEXT
  8
0
 62
     0
 10
2.32333
 20
6.12
 30
0.0
 40
0.195
  1
18
 50
0
  0
POLYLINE
  8
0
 62
     0
 66
     1
 10
0
 20
0
 30
0.0
 70
     1
 40
0
 41
0
  0
VERTEX
  8
0
 10
0.199978
 20
6.30501
 30
0.0
 40
0
 41
0
  0
VERTEX
  8
0
 10
0.206651
 20
6.30501
 30
0.0
 40
0
 41
0
  0
VERTEX
  8
0
 10
0.206651
 20
6.31168
 30
0.0
 40
0
 41
0
  0
VERTEX
  8
0
 10
0.199978
 20
6.31168
 30
0.0
 40
0
 41
0
  0
VERTEX
  8
0
 10
0.199978
 20
6.30501
 30
0.0
 40
0
 41
0
  0
SEQEND
 8
0
  0
POLYLINE
  8
0
 62
     0
 66
     1
 10
0
 20
0
 30
0.0
 70
     1
 40
0
 41
0
  0
VERTEX
  8
0
 10
0.206651
 20
6.30501
 30
0.0
 40
0
 41
0
  0
VERTEX
  8
0
 10
2.24333
 20
6.30501
 30
0.0
 40
0
 41
0
  0
VERTEX
  8
0
 10
2.24333
 20
6.31168
 30
0.0
 40
0
 41
0
  0
VERTEX
  8
0
 10
0.206651
 20
6.31168
 30
0.0
 40
0
 41
0
  0
VERTEX
  8
0
 10
0.206651
 20
6.30501
 30
0.0
 40
0
 41
0
  0
SEQEND
 8
0
  0
POLYLINE
  8
0
 62
     0
 66
     1
 10
0
 20
0
 30
0.0
 70
     1
 40
0
 41
0
  0
VERTEX
  8
0
 10
2.24333
 20
6.30501
 30
0.0
 40
0
 41
0
  0
VERTEX
  8
0
 10
2.25
 20
6.30501
 30
0.0
 40
0
 41
0
  0
VERTEX
  8
0
 10
2.25
 20
6.31168
 30
0.0
 40
0
 41
0
  0
VERTEX
  8
0
 10
2.24333
 20
6.31168
 30
0.0
 40
0
 41
0
  0
VERTEX
  8
0
 10
2.24333
 20
6.30501
 30
0.0
 40
0
 41
0
  0
SEQEND
 8
0
  0
POLYLINE
  8
0
 62
     0
 66
     1
 10
0
 20
0
 30
0.0
 70
     1
 40
0
 41
0
  0
VERTEX
  8
0
 10
2.25
 20
6.30501
 30
0.0
 40
0
 41
0
  0
VERTEX
  8
0
 10
4.41
 20
6.30501
 30
0.0
 40
0
 41
0
  0
VERTEX
  8
0
 10
4.41
 20
6.31168
 30
0.0
 40
0
 41
0
  0
VERTEX
  8
0
 10
2.25
 20
6.31168
 30
0.0
 40
0
 41
0
  0
VERTEX
  8
0
 10
2.25
 20
6.30501
 30
0.0
 40
0
 41
0
  0
SEQEND
 8
0
  0
POLYLINE
  8
0
 62
     0
 66
     1
 10
0
 20
0
 30
0.0
 70
     1
 40
0
 41
0
  0
VERTEX
  8
0
 10
4.41
 20
6.30501
 30
0.0
 40
0
 41
0
  0
VERTEX
  8
0
 10
4.41667
 20
6.30501
 30
0.0
 40
0
 41
0
  0
VERTEX
  8
0
 10
4.41667
 20
6.31168
 30
0.0
 40
0
 41
0
  0
VERTEX
  8
0
 10
4.41
 20
6.31168
 30
0.0
 40
0
 41
0
  0
VERTEX
  8
0
 10
4.41
 20
6.30501
 30
0.0
 40
0
 41
0
  0
SEQEND
 8
0
  0
POLYLINE
  8
0
 62
     0
 66
     1
 10
0
 20
0
 30
0.0
 70
     1
 40
0
 41
0
  0
VERTEX
  8
0
 10
0.199978
 20
6.06836
 30
0.0
 40
0
 41
0
  0
VERTEX
  8
0
 10
0.206651
 20
6.06836
 30
0.0
 40
0
 41
0
  0
VERTEX
  8
0
 10
0.206651
 20
6.30501
 30
0.0
 40
0
 41
0
  0
VERTEX
  8
0
 10
0.199978
 20
6.30501
 30
0.0
 40
0
 41
0
  0
VERTEX
  8
0
 10
0.199978
 20
6.06836
 30
0.0
 40
0
 41
0
  0
SEQEND
 8
0
  0
POLYLINE
  8
0
 62
     0
 66
     1
 10
0
 20
0
 30
0.0
 70
     1
 40
0
 41
0
  0
VERTEX
  8
0
 10
2.24333
 20
6.06836
 30
0.0
 40
0
 41
0
  0
VERTEX
  8
0
 10
2.25
 20
6.06836
 30
0.0
 40
0
 41
0
  0
VERTEX
  8
0
 10
2.25
 20
6.30501
 30
0.0
 40
0
 41
0
  0
VERTEX
  8
0
 10
2.24333
 20
6.30501
 30
0.0
 40
0
 41
0
  0
VERTEX
  8
0
 10
2.24333
 20
6.06836
 30
0.0
 40
0
 41
0
  0
SEQEND
 8
0
  0
POLYLINE
  8
0
 62
     0
 66
     1
 10
0
 20
0
 30
0.0
 70
     1
 40
0
 41
0
  0
VERTEX
  8
0
 10
4.41
 20
6.06836
 30
0.0
 40
0
 41
0
  0
VERTEX
  8
0
 10
4.41667
 20
6.06836
 30
0.0
 40
0
 41
0
  0
VERTEX
  8
0
 10
4.41667
 20
6.30501
 30
0.0
 40
0
 41
0
  0
VERTEX
  8
0
 10
4.41
 20
6.30501
 30
0.0
 40
0
 41
0
  0
VERTEX
  8
0
 10
4.41
 20
6.06836
 30
0.0
 40
0
 41
0
  0
SEQEND
 8
0
  0
TEXT
  8
0
 62
     0
 10
0.278333
 20
5.87667
 30
0.0
 40
0.195
  1
S
 50
0
  0
TEXT
  8
0
 62
     0
 10
0.368306
 20
5.87667
 30
0.0
 40
0.195
  1
o
 50
0
  0
TEXT
  8
0
 62
     0
 10
0.471667
 20
5.87667
 30
0.0
 40
0.195
  1
und D
 50
0
  0
TEXT
  8
0
 62
     0
 10
0.939628
 20
5.87667
 30
0.0
 40
0.195
  1
e
 50
0
  0
TEXT
  8
0
 62
     0
 10
1.03628
 20
5.87667
 30
0.0
 40
0.195
  1
a
 50
0
  0
TEXT
  8
0
 62
     0
 10
1.12959
 20
5.87667
 30
0.0
 40
0.195
  1
de
 50
0
  0
TEXT
  8
0
 62
     0
 10
1.32778
 20
5.87667
 30
0.0
 40
0.195
  1
ni
 50
0
  0
TEXT
  8
0
 62
     0
 10
1.47437
 20
5.87667
 30
0.0
 40
0.195
  1
ng
 50
0
  0
TEXT
  8
0
 62
     0
 10
1.66757
 20
5.87667
 30
0.0
 40
0.195
  1
:
 50
0
  0
TEXT
  8
0
 62
     0
 10
2.32333
 20
5.87667
 30
0.0
 40
0.195
  1
F
 50
0
  0
TEXT
  8
0
 62
     0
 10
2.41331
 20
5.87667
 30
0.0
 40
0.195
  1
ul
 50
0
  0
TEXT
  8
0
 62
     0
 10
2.55989
 20
5.87667
 30
0.0
 40
0.195
  1
l
 50
0
  0
TEXT
  8
0
 62
     0
 10
2.60489
 20
5.87667
 30
0.0
 40
0.195
  1
 s
 50
0
  0
TEXT
  8
0
 62
     0
 10
2.88819
 20
5.87667
 30
0.0
 40
0.195
  1
pr
 50
0
  0
TEXT
  8
0
 62
     0
 10
3.05475
 20
5.87667
 30
0.0
 40
0.195
  1
a
 50
0
  0
TEXT
  8
0
 62
     0
 10
3.14475
 20
5.87667
 30
0.0
 40
0.195
  1
y
 50
0
  0
TEXT
  8
0
 62
     0
 10
3.23308
 20
5.87667
 30
0.0
 40
0.195
  1
 s
 50
0
  0
TEXT
  8
0
 62
     0
 10
3.51639
 20
5.87667
 30
0.0
 40
0.195
  1
i
 50
0
  0
TEXT
  8
0
 62
     0
 10
3.5614
 20
5.87667
 30
0.0
 40
0.195
  1
de
 50
0
  0
TEXT
  8
0
 62
     0
 10
3.7596
 20
5.87667
 30
0.0
 40
0.195
  1
s
 50
0
  0
TEXT
  8
0
 62
     0
 10
3.8346
 20
5.87667
 30
0.0
 40
0.195
  1
 a
 50
0
  0
TEXT
  8
0
 62
     0
 10
4.13458
 20
5.87667
 30
0.0
 40
0.195
  1
nd
 50
0
  0
TEXT
  8
0
 62
     0
 10
2.32333
 20
5.63833
 30
0.0
 40
0.195
  1
b
 50
0
  0
TEXT
  8
0
 62
     0
 10
2.42492
 20
5.63833
 30
0.0
 40
0.195
  1
ot
 50
0
  0
TEXT
  8
0
 62
     0
 10
2.58982
 20
5.63833
 30
0.0
 40
0.195
  1
t
 50
0
  0
TEXT
  8
0
 62
     0
 10
2.65311
 20
5.63833
 30
0.0
 40
0.195
  1
om
 50
0
  0
TEXT
  8
0
 62
     0
 10
2.91133
 20
5.63833
 30
0.0
 40
0.195
  1
 wi
 50
0
  0
TEXT
  8
0
 62
     0
 10
3.15779
 20
5.63833
 30
0.0
 40
0.195
  1
t
 50
0
  0
TEXT
  8
0
 62
     0
 10
3.22274
 20
5.63833
 30
0.0
 40
0.195
  1
h
 50
0
  0
TEXT
  8
0
 62
     0
 10
3.32431
 20
5.63833
 30
0.0
 40
0.195
  1
 Bot
 50
0
  0
TEXT
  8
0
 62
     0
 10
3.65743
 20
5.63833
 30
0.0
 40
0.195
  1
t
 50
0
  0
TEXT
  8
0
 62
     0
 10
3.72069
 20
5.63833
 30
0.0
 40
0.195
  1
om
 50
0
  0
TEXT
  8
0
 62
     0
 10
3.97892
 20
5.63833
 30
0.0
 40
0.195
  1
 a
 50
0
  0
TEXT
  8
0
 62
     0
 10
4.13376
 20
5.63833
 30
0.0
 40
0.195
  1
n
 50
0
  0
TEXT
  8
0
 62
     0
 10
4.23532
 20
5.63833
 30
0.0
 40
0.195
  1
d
 50
0
  0
TEXT
  8
0
 62
     0
 10
2.32333
 20
5.40167
 30
0.0
 40
0.195
  1
f
 50
0
  0
TEXT
  8
0
 62
     0
 10
2.38001
 20
5.40167
 30
0.0
 40
0.195
  1
o
 50
0
  0
TEXT
  8
0
 62
     0
 10
2.48335
 20
5.40167
 30
0.0
 40
0.195
  1
ur
 50
0
  0
TEXT
  8
0
 62
     0
 10
2.65324
 20
5.40167
 30
0.0
 40
0.195
  1
 s
 50
0
  0
TEXT
  8
0
 62
     0
 10
2.77153
 20
5.40167
 30
0.0
 40
0.195
  1
i
 50
0
  0
TEXT
  8
0
 62
     0
 10
2.81656
 20
5.40167
 30
0.0
 40
0.195
  1
de
 50
0
  0
TEXT
  8
0
 62
     0
 10
3.01475
 20
5.40167
 30
0.0
 40
0.195
  1
s
 50
0
  0
TEXT
  8
0
 62
     0
 10
3.09143
 20
5.40167
 30
0.0
 40
0.195
  1
 pa
 50
0
  0
TEXT
  8
0
 62
     0
 10
3.32961
 20
5.40167
 30
0.0
 40
0.195
  1
ds
 50
0
  0
TEXT
  8
0
 62
     0
 10
3.50785
 20
5.40167
 30
0.0
 40
0.195
  1
.
 50
0
  0
POLYLINE
  8
0
 62
     0
 66
     1
 10
0
 20
0
 30
0.0
 70
     1
 40
0
 41
0
  0
VERTEX
  8
0
 10
0.199978
 20
6.06168
 30
0.0
 40
0
 41
0
  0
VERTEX
  8
0
 10
0.206651
 20
6.06168
 30
0.0
 40
0
 41
0
  0
VERTEX
  8
0
 10
0.206651
 20
6.06836
 30
0.0
 40
0
 41
0
  0
VERTEX
  8
0
 10
0.199978
 20
6.06836
 30
0.0
 40
0
 41
0
  0
VERTEX
  8
0
 10
0.199978
 20
6.06168
 30
0.0
 40
0
 41
0
  0
SEQEND
 8
0
  0
POLYLINE
  8
0
 62
     0
 66
     1
 10
0
 20
0
 30
0.0
 70
     1
 40
0
 41
0
  0
VERTEX
  8
0
 10
0.206651
 20
6.06168
 30
0.0
 40
0
 41
0
  0
VERTEX
  8
0
 10
2.24333
 20
6.06168
 30
0.0
 40
0
 41
0
  0
VERTEX
  8
0
 10
2.24333
 20
6.06836
 30
0.0
 40
0
 41
0
  0
VERTEX
  8
0
 10
0.206651
 20
6.06836
 30
0.0
 40
0
 41
0
  0
VERTEX
  8
0
 10
0.206651
 20
6.06168
 30
0.0
 40
0
 41
0
  0
SEQEND
 8
0
  0
POLYLINE
  8
0
 62
     0
 66
     1
 10
0
 20
0
 30
0.0
 70
     1
 40
0
 41
0
  0
VERTEX
  8
0
 10
2.24333
 20
6.06168
 30
0.0
 40
0
 41
0
  0
VERTEX
  8
0
 10
2.25
 20
6.06168
 30
0.0
 40
0
 41
0
  0
VERTEX
  8
0
 10
2.25
 20
6.06836
 30
0.0
 40
0
 41
0
  0
VERTEX
  8
0
 10
2.24333
 20
6.06836
 30
0.0
 40
0
 41
0
  0
VERTEX
  8
0
 10
2.24333
 20
6.06168
 30
0.0
 40
0
 41
0
  0
SEQEND
 8
0
  0
POLYLINE
  8
0
 62
     0
 66
     1
 10
0
 20
0
 30
0.0
 70
     1
 40
0
 41
0
  0
VERTEX
  8
0
 10
2.25
 20
6.06168
 30
0.0
 40
0
 41
0
  0
VERTEX
  8
0
 10
4.41
 20
6.06168
 30
0.0
 40
0
 41
0
  0
VERTEX
  8
0
 10
4.41
 20
6.06836
 30
0.0
 40
0
 41
0
  0
VERTEX
  8
0
 10
2.25
 20
6.06836
 30
0.0
 40
0
 41
0
  0
VERTEX
  8
0
 10
2.25
 20
6.06168
 30
0.0
 40
0
 41
0
  0
SEQEND
 8
0
  0
POLYLINE
  8
0
 62
     0
 66
     1
 10
0
 20
0
 30
0.0
 70
     1
 40
0
 41
0
  0
VERTEX
  8
0
 10
4.41
 20
6.06168
 30
0.0
 40
0
 41
0
  0
VERTEX
  8
0
 10
4.41667
 20
6.06168
 30
0.0
 40
0
 41
0
  0
VERTEX
  8
0
 10
4.41667
 20
6.06836
 30
0.0
 40
0
 41
0
  0
VERTEX
  8
0
 10
4.41
 20
6.06836
 30
0.0
 40
0
 41
0
  0
VERTEX
  8
0
 10
4.41
 20
6.06168
 30
0.0
 40
0
 41
0
  0
SEQEND
 8
0
  0
POLYLINE
  8
0
 62
     0
 66
     1
 10
0
 20
0
 30
0.0
 70
     1
 40
0
 41
0
  0
VERTEX
  8
0
 10
0.199978
 20
5.34831
 30
0.0
 40
0
 41
0
  0
VERTEX
  8
0
 10
0.206651
 20
5.34831
 30
0.0
 40
0
 41
0
  0
VERTEX
  8
0
 10
0.206651
 20
6.06164
 30
0.0
 40
0
 41
0
  0
VERTEX
  8
0
 10
0.199978
 20
6.06164
 30
0.0
 40
0
 41
0
  0
VERTEX
  8
0
 10
0.199978
 20
5.34831
 30
0.0
 40
0
 41
0
  0
SEQEND
 8
0
  0
POLYLINE
  8
0
 62
     0
 66
     1
 10
0
 20
0
 30
0.0
 70
     1
 40
0
 41
0
  0
VERTEX
  8
0
 10
2.24333
 20
5.34831
 30
0.0
 40
0
 41
0
  0
VERTEX
  8
0
 10
2.25
 20
5.34831
 30
0.0
 40
0
 41
0
  0
VERTEX
  8
0
 10
2.25
 20
6.06164
 30
0.0
 40
0
 41
0
  0
VERTEX
  8
0
 10
2.24333
 20
6.06164
 30
0.0
 40
0
 41
0
  0
VERTEX
  8
0
 10
2.24333
 20
5.34831
 30
0.0
 40
0
 41
0
  0
SEQEND
 8
0
  0
POLYLINE
  8
0
 62
     0
 66
     1
 10
0
 20
0
 30
0.0
 70
     1
 40
0
 41
0
  0
VERTEX
  8
0
 10
4.41
 20
5.34831
 30
0.0
 40
0
 41
0
  0
VERTEX
  8
0
 10
4.41667
 20
5.34831
 30
0.0
 40
0
 41
0
  0
VERTEX
  8
0
 10
4.41667
 20
6.06164
 30
0.0
 40
0
 41
0
  0
VERTEX
  8
0
 10
4.41
 20
6.06164
 30
0.0
 40
0
 41
0
  0
VERTEX
  8
0
 10
4.41
 20
5.34831
 30
0.0
 40
0
 41
0
  0
SEQEND
 8
0
  0
TEXT
  8
0
 62
     0
 10
0.278333
 20
5.15667
 30
0.0
 40
0.195
  1
N
 50
0
  0
TEXT
  8
0
 62
     0
 10
0.404978
 20
5.15667
 30
0.0
 40
0.195
  1
umbe
 50
0
  0
TEXT
  8
0
 62
     0
 10
0.859736
 20
5.15667
 30
0.0
 40
0.195
  1
r
 50
0
  0
TEXT
  8
0
 62
     0
 10
0.928064
 20
5.15667
 30
0.0
 40
0.195
  1
 o
 50
0
  0
TEXT
  8
0
 62
     0
 10
1.0747
 20
5.15667
 30
0.0
 40
0.195
  1
f
 50
0
  0
TEXT
  8
0
 62
     0
 10
1.13471
 20
5.15667
 30
0.0
 40
0.195
  1
 B
 50
0
  0
TEXT
  8
0
 62
     0
 10
1.283
 20
5.15667
 30
0.0
 40
0.195
  1
o
 50
0
  0
TEXT
  8
0
 62
     0
 10
1.38634
 20
5.15667
 30
0.0
 40
0.195
  1
w
 50
0
  0
TEXT
  8
0
 62
     0
 10
1.52464
 20
5.15667
 30
0.0
 40
0.195
  1
l
 50
0
  0
TEXT
  8
0
 62
     0
 10
1.56967
 20
5.15667
 30
0.0
 40
0.195
  1
s
 50
0
  0
TEXT
  8
0
 62
     0
 10
1.64635
 20
5.15667
 30
0.0
 40
0.195
  1
:
 50
0
  0
TEXT
  8
0
 62
     0
 10
2.32333
 20
5.15667
 30
0.0
 40
0.195
  1
1
 50
0
  0
POLYLINE
  8
0
 62
     0
 66
     1
 10
0
 20
0
 30
0.0
 70
     1
 40
0
 41
0
  0
VERTEX
  8
0
 10
0.199978
 20
5.34169
 30
0.0
 40
0
 41
0
  0
VERTEX
  8
0
 10
0.206651
 20
5.34169
 30
0.0
 40
0
 41
0
  0
VERTEX
  8
0
 10
0.206651
 20
5.34836
 30
0.0
 40
0
 41
0
  0
VERTEX
  8
0
 10
0.199978
 20
5.34836
 30
0.0
 40
0
 41
0
  0
VERTEX
  8
0
 10
0.199978
 20
5.34169
 30
0.0
 40
0
 41
0
  0
SEQEND
 8
0
  0
POLYLINE
  8
0
 62
     0
 66
     1
 10
0
 20
0
 30
0.0
 70
     1
 40
0
 41
0
  0
VERTEX
  8
0
 10
0.206651
 20
5.34169
 30
0.0
 40
0
 41
0
  0
VERTEX
  8
0
 10
2.24333
 20
5.34169
 30
0.0
 40
0
 41
0
  0
VERTEX
  8
0
 10
2.24333
 20
5.34836
 30
0.0
 40
0
 41
0
  0
VERTEX
  8
0
 10
0.206651
 20
5.34836
 30
0.0
 40
0
 41
0
  0
VERTEX
  8
0
 10
0.206651
 20
5.34169
 30
0.0
 40
0
 41
0
  0
SEQEND
 8
0
  0
POLYLINE
  8
0
 62
     0
 66
     1
 10
0
 20
0
 30
0.0
 70
     1
 40
0
 41
0
  0
VERTEX
  8
0
 10
2.24333
 20
5.34169
 30
0.0
 40
0
 41
0
  0
VERTEX
  8
0
 10
2.25
 20
5.34169
 30
0.0
 40
0
 41
0
  0
VERTEX
  8
0
 10
2.25
 20
5.34836
 30
0.0
 40
0
 41
0
  0
VERTEX
  8
0
 10
2.24333
 20
5.34836
 30
0.0
 40
0
 41
0
  0
VERTEX
  8
0
 10
2.24333
 20
5.34169
 30
0.0
 40
0
 41
0
  0
SEQEND
 8
0
  0
POLYLINE
  8
0
 62
     0
 66
     1
 10
0
 20
0
 30
0.0
 70
     1
 40
0
 41
0
  0
VERTEX
  8
0
 10
2.25
 20
5.34169
 30
0.0
 40
0
 41
0
  0
VERTEX
  8
0
 10
4.41
 20
5.34169
 30
0.0
 40
0
 41
0
  0
VERTEX
  8
0
 10
4.41
 20
5.34836
 30
0.0
 40
0
 41
0
  0
VERTEX
  8
0
 10
2.25
 20
5.34836
 30
0.0
 40
0
 41
0
  0
VERTEX
  8
0
 10
2.25
 20
5.34169
 30
0.0
 40
0
 41
0
  0
SEQEND
 8
0
  0
POLYLINE
  8
0
 62
     0
 66
     1
 10
0
 20
0
 30
0.0
 70
     1
 40
0
 41
0
  0
VERTEX
  8
0
 10
4.41
 20
5.34169
 30
0.0
 40
0
 41
0
  0
VERTEX
  8
0
 10
4.41667
 20
5.34169
 30
0.0
 40
0
 41
0
  0
VERTEX
  8
0
 10
4.41667
 20
5.34836
 30
0.0
 40
0
 41
0
  0
VERTEX
  8
0
 10
4.41
 20
5.34836
 30
0.0
 40
0
 41
0
  0
VERTEX
  8
0
 10
4.41
 20
5.34169
 30
0.0
 40
0
 41
0
  0
SEQEND
 8
0
  0
POLYLINE
  8
0
 62
     0
 66
     1
 10
0
 20
0
 30
0.0
 70
     1
 40
0
 41
0
  0
VERTEX
  8
0
 10
0.199978
 20
5.10499
 30
0.0
 40
0
 41
0
  0
VERTEX
  8
0
 10
0.206651
 20
5.10499
 30
0.0
 40
0
 41
0
  0
VERTEX
  8
0
 10
0.206651
 20
5.34169
 30
0.0
 40
0
 41
0
  0
VERTEX
  8
0
 10
0.199978
 20
5.34169
 30
0.0
 40
0
 41
0
  0
VERTEX
  8
0
 10
0.199978
 20
5.10499
 30
0.0
 40
0
 41
0
  0
SEQEND
 8
0
  0
POLYLINE
  8
0
 62
     0
 66
     1
 10
0
 20
0
 30
0.0
 70
     1
 40
0
 41
0
  0
VERTEX
  8
0
 10
2.24333
 20
5.10499
 30
0.0
 40
0
 41
0
  0
VERTEX
  8
0
 10
2.25
 20
5.10499
 30
0.0
 40
0
 41
0
  0
VERTEX
  8
0
 10
2.25
 20
5.34169
 30
0.0
 40
0
 41
0
  0
VERTEX
  8
0
 10
2.24333
 20
5.34169
 30
0.0
 40
0
 41
0
  0
VERTEX
  8
0
 10
2.24333
 20
5.10499
 30
0.0
 40
0
 41
0
  0
SEQEND
 8
0
  0
POLYLINE
  8
0
 62
     0
 66
     1
 10
0
 20
0
 30
0.0
 70
     1
 40
0
 41
0
  0
VERTEX
  8
0
 10
4.41
 20
5.10499
 30
0.0
 40
0
 41
0
  0
VERTEX
  8
0
 10
4.41667
 20
5.10499
 30
0.0
 40
0
 41
0
  0
VERTEX
  8
0
 10
4.41667
 20
5.34169
 30
0.0
 40
0
 41
0
  0
VERTEX
  8
0
 10
4.41
 20
5.34169
 30
0.0
 40
0
 41
0
  0
VERTEX
  8
0
 10
4.41
 20
5.10499
 30
0.0
 40
0
 41
0
  0
SEQEND
 8
0
  0
TEXT
  8
0
 62
     0
 10
0.278333
 20
4.91333
 30
0.0
 40
0.195
  1
S
 50
0
  0
TEXT
  8
0
 62
     0
 10
0.368306
 20
4.91333
 30
0.0
 40
0.195
  1
i
 50
0
  0
TEXT
  8
0
 62
     0
 10
0.413328
 20
4.91333
 30
0.0
 40
0.195
  1
nk
 50
0
  0
TEXT
  8
0
 62
     0
 10
0.603225
 20
4.91333
 30
0.0
 40
0.195
  1
 D
 50
0
  0
TEXT
  8
0
 62
     0
 10
0.766518
 20
4.91333
 30
0.0
 40
0.195
  1
i
 50
0
  0
TEXT
  8
0
 62
     0
 10
0.811521
 20
4.91333
 30
0.0
 40
0.195
  1
me
 50
0
  0
TEXT
  8
0
 62
     0
 10
1.06315
 20
4.91333
 30
0.0
 40
0.195
  1
ns
 50
0
  0
TEXT
  8
0
 62
     0
 10
1.24137
 20
4.91333
 30
0.0
 40
0.195
  1
i
 50
0
  0
TEXT
  8
0
 62
     0
 10
1.28639
 20
4.91333
 30
0.0
 40
0.195
  1
o
 50
0
  0
TEXT
  8
0
 62
     0
 10
1.38974
 20
4.91333
 30
0.0
 40
0.195
  1
ns
 50
0
  0
TEXT
  8
0
 62
     0
 10
1.56796
 20
4.91333
 30
0.0
 40
0.195
  1
:
 50
0
  0
TEXT
  8
0
 62
     0
 10
2.32333
 20
4.91333
 30
0.0
 40
0.195
  1
31
 50
0
  0
TEXT
  8
0
 62
     0
 10
2.52
 20
4.91333
 30
0.0
 40
0.195
  1
"
 50
0
  0
TEXT
  8
0
 62
     0
 10
2.645
 20
4.91333
 30
0.0
 40
0.195
  1
x 
 50
0
  0
TEXT
  8
0
 62
     0
 10
2.77333
 20
4.91333
 30
0.0
 40
0.195
  1
18
 50
0
  0
TEXT
  8
0
 62
     0
 10
2.97
 20
4.91333
 30
0.0
 40
0.195
  1
"
 50
0
  0
TEXT
  8
0
 62
     0
 10
3.095
 20
4.91333
 30
0.0
 40
0.195
  1
x 
 50
0
  0
TEXT
  8
0
 62
     0
 10
3.22333
 20
4.91333
 30
0.0
 40
0.195
  1
10
 50
0
  0
TEXT
  8
0
 62
     0
 10
3.42
 20
4.91333
 30
0.0
 40
0.195
  1
"
 50
0
  0
POLYLINE
  8
0
 62
     0
 66
     1
 10
0
 20
0
 30
0.0
 70
     1
 40
0
 41
0
  0
VERTEX
  8
0
 10
0.199978
 20
5.09831
 30
0.0
 40
0
 41
0
  0
VERTEX
  8
0
 10
0.206651
 20
5.09831
 30
0.0
 40
0
 41
0
  0
VERTEX
  8
0
 10
0.206651
 20
5.10499
 30
0.0
 40
0
 41
0
  0
VERTEX
  8
0
 10
0.199978
 20
5.10499
 30
0.0
 40
0
 41
0
  0
VERTEX
  8
0
 10
0.199978
 20
5.09831
 30
0.0
 40
0
 41
0
  0
SEQEND
 8
0
  0
POLYLINE
  8
0
 62
     0
 66
     1
 10
0
 20
0
 30
0.0
 70
     1
 40
0
 41
0
  0
VERTEX
  8
0
 10
0.206651
 20
5.09831
 30
0.0
 40
0
 41
0
  0
VERTEX
  8
0
 10
2.24333
 20
5.09831
 30
0.0
 40
0
 41
0
  0
VERTEX
  8
0
 10
2.24333
 20
5.10499
 30
0.0
 40
0
 41
0
  0
VERTEX
  8
0
 10
0.206651
 20
5.10499
 30
0.0
 40
0
 41
0
  0
VERTEX
  8
0
 10
0.206651
 20
5.09831
 30
0.0
 40
0
 41
0
  0
SEQEND
 8
0
  0
POLYLINE
  8
0
 62
     0
 66
     1
 10
0
 20
0
 30
0.0
 70
     1
 40
0
 41
0
  0
VERTEX
  8
0
 10
2.24333
 20
5.09831
 30
0.0
 40
0
 41
0
  0
VERTEX
  8
0
 10
2.25
 20
5.09831
 30
0.0
 40
0
 41
0
  0
VERTEX
  8
0
 10
2.25
 20
5.10499
 30
0.0
 40
0
 41
0
  0
VERTEX
  8
0
 10
2.24333
 20
5.10499
 30
0.0
 40
0
 41
0
  0
VERTEX
  8
0
 10
2.24333
 20
5.09831
 30
0.0
 40
0
 41
0
  0
SEQEND
 8
0
  0
POLYLINE
  8
0
 62
     0
 66
     1
 10
0
 20
0
 30
0.0
 70
     1
 40
0
 41
0
  0
VERTEX
  8
0
 10
2.25
 20
5.09831
 30
0.0
 40
0
 41
0
  0
VERTEX
  8
0
 10
4.41
 20
5.09831
 30
0.0
 40
0
 41
0
  0
VERTEX
  8
0
 10
4.41
 20
5.10499
 30
0.0
 40
0
 41
0
  0
VERTEX
  8
0
 10
2.25
 20
5.10499
 30
0.0
 40
0
 41
0
  0
VERTEX
  8
0
 10
2.25
 20
5.09831
 30
0.0
 40
0
 41
0
  0
SEQEND
 8
0
  0
POLYLINE
  8
0
 62
     0
 66
     1
 10
0
 20
0
 30
0.0
 70
     1
 40
0
 41
0
  0
VERTEX
  8
0
 10
4.41
 20
5.09831
 30
0.0
 40
0
 41
0
  0
VERTEX
  8
0
 10
4.41667
 20
5.09831
 30
0.0
 40
0
 41
0
  0
VERTEX
  8
0
 10
4.41667
 20
5.10499
 30
0.0
 40
0
 41
0
  0
VERTEX
  8
0
 10
4.41
 20
5.10499
 30
0.0
 40
0
 41
0
  0
VERTEX
  8
0
 10
4.41
 20
5.09831
 30
0.0
 40
0
 41
0
  0
SEQEND
 8
0
  0
POLYLINE
  8
0
 62
     0
 66
     1
 10
0
 20
0
 30
0.0
 70
     1
 40
0
 41
0
  0
VERTEX
  8
0
 10
0.199978
 20
4.86003
 30
0.0
 40
0
 41
0
  0
VERTEX
  8
0
 10
0.206651
 20
4.86003
 30
0.0
 40
0
 41
0
  0
VERTEX
  8
0
 10
0.206651
 20
5.09831
 30
0.0
 40
0
 41
0
  0
VERTEX
  8
0
 10
0.199978
 20
5.09831
 30
0.0
 40
0
 41
0
  0
VERTEX
  8
0
 10
0.199978
 20
4.86003
 30
0.0
 40
0
 41
0
  0
SEQEND
 8
0
  0
POLYLINE
  8
0
 62
     0
 66
     1
 10
0
 20
0
 30
0.0
 70
     1
 40
0
 41
0
  0
VERTEX
  8
0
 10
2.24333
 20
4.86003
 30
0.0
 40
0
 41
0
  0
VERTEX
  8
0
 10
2.25
 20
4.86003
 30
0.0
 40
0
 41
0
  0
VERTEX
  8
0
 10
2.25
 20
5.09831
 30
0.0
 40
0
 41
0
  0
VERTEX
  8
0
 10
2.24333
 20
5.09831
 30
0.0
 40
0
 41
0
  0
VERTEX
  8
0
 10
2.24333
 20
4.86003
 30
0.0
 40
0
 41
0
  0
SEQEND
 8
0
  0
POLYLINE
  8
0
 62
     0
 66
     1
 10
0
 20
0
 30
0.0
 70
     1
 40
0
 41
0
  0
VERTEX
  8
0
 10
4.41
 20
4.86003
 30
0.0
 40
0
 41
0
  0
VERTEX
  8
0
 10
4.41667
 20
4.86003
 30
0.0
 40
0
 41
0
  0
VERTEX
  8
0
 10
4.41667
 20
5.09831
 30
0.0
 40
0
 41
0
  0
VERTEX
  8
0
 10
4.41
 20
5.09831
 30
0.0
 40
0
 41
0
  0
VERTEX
  8
0
 10
4.41
 20
4.86003
 30
0.0
 40
0
 41
0
  0
SEQEND
 8
0
  0
TEXT
  8
0
 62
     0
 10
0.278333
 20
4.66833
 30
0.0
 40
0.195
  1
B
 50
0
  0
TEXT
  8
0
 62
     0
 10
0.385004
 20
4.66833
 30
0.0
 40
0.195
  1
o
 50
0
  0
TEXT
  8
0
 62
     0
 10
0.486689
 20
4.66833
 30
0.0
 40
0.195
  1
w
 50
0
  0
TEXT
  8
0
 62
     0
 10
0.626651
 20
4.66833
 30
0.0
 40
0.195
  1
l
 50
0
  0
TEXT
  8
0
 62
     0
 10
0.671674
 20
4.66833
 30
0.0
 40
0.195
  1
 1
 50
0
  0
TEXT
  8
0
 62
     0
 10
0.813312
 20
4.66833
 30
0.0
 40
0.195
  1
 D
 50
0
  0
TEXT
  8
0
 62
     0
 10
0.976606
 20
4.66833
 30
0.0
 40
0.195
  1
i
 50
0
  0
TEXT
  8
0
 62
     0
 10
1.02161
 20
4.66833
 30
0.0
 40
0.195
  1
me
 50
0
  0
TEXT
  8
0
 62
     0
 10
1.27324
 20
4.66833
 30
0.0
 40
0.195
  1
ns
 50
0
  0
TEXT
  8
0
 62
     0
 10
1.45149
 20
4.66833
 30
0.0
 40
0.195
  1
i
 50
0
  0
TEXT
  8
0
 62
     0
 10
1.49649
 20
4.66833
 30
0.0
 40
0.195
  1
o
 50
0
  0
TEXT
  8
0
 62
     0
 10
1.59982
 20
4.66833
 30
0.0
 40
0.195
  1
ns
 50
0
  0
TEXT
  8
0
 62
     0
 10
1.77806
 20
4.66833
 30
0.0
 40
0.195
  1
:
 50
0
  0
TEXT
  8
0
 62
     0
 10
2.32333
 20
4.66833
 30
0.0
 40
0.195
  1
29
 50
0
  0
TEXT
  8
0
 62
     0
 10
2.52
 20
4.66833
 30
0.0
 40
0.195
  1
"
 50
0
  0
TEXT
  8
0
 62
     0
 10
2.645
 20
4.66833
 30
0.0
 40
0.195
  1
x 
 50
0
  0
TEXT
  8
0
 62
     0
 10
2.77333
 20
4.66833
 30
0.0
 40
0.195
  1
16
 50
0
  0
TEXT
  8
0
 62
     0
 10
2.97
 20
4.66833
 30
0.0
 40
0.195
  1
"
 50
0
  0
TEXT
  8
0
 62
     0
 10
3.095
 20
4.66833
 30
0.0
 40
0.195
  1
x 
 50
0
  0
TEXT
  8
0
 62
     0
 10
3.22333
 20
4.66833
 30
0.0
 40
0.195
  1
10
 50
0
  0
TEXT
  8
0
 62
     0
 10
3.42
 20
4.66833
 30
0.0
 40
0.195
  1
"
 50
0
  0
POLYLINE
  8
0
 62
     0
 66
     1
 10
0
 20
0
 30
0.0
 70
     1
 40
0
 41
0
  0
VERTEX
  8
0
 10
0.199978
 20
4.85335
 30
0.0
 40
0
 41
0
  0
VERTEX
  8
0
 10
0.206651
 20
4.85335
 30
0.0
 40
0
 41
0
  0
VERTEX
  8
0
 10
0.206651
 20
4.86003
 30
0.0
 40
0
 41
0
  0
VERTEX
  8
0
 10
0.199978
 20
4.86003
 30
0.0
 40
0
 41
0
  0
VERTEX
  8
0
 10
0.199978
 20
4.85335
 30
0.0
 40
0
 41
0
  0
SEQEND
 8
0
  0
POLYLINE
  8
0
 62
     0
 66
     1
 10
0
 20
0
 30
0.0
 70
     1
 40
0
 41
0
  0
VERTEX
  8
0
 10
0.206651
 20
4.85335
 30
0.0
 40
0
 41
0
  0
VERTEX
  8
0
 10
2.24333
 20
4.85335
 30
0.0
 40
0
 41
0
  0
VERTEX
  8
0
 10
2.24333
 20
4.86003
 30
0.0
 40
0
 41
0
  0
VERTEX
  8
0
 10
0.206651
 20
4.86003
 30
0.0
 40
0
 41
0
  0
VERTEX
  8
0
 10
0.206651
 20
4.85335
 30
0.0
 40
0
 41
0
  0
SEQEND
 8
0
  0
POLYLINE
  8
0
 62
     0
 66
     1
 10
0
 20
0
 30
0.0
 70
     1
 40
0
 41
0
  0
VERTEX
  8
0
 10
2.24333
 20
4.85335
 30
0.0
 40
0
 41
0
  0
VERTEX
  8
0
 10
2.25
 20
4.85335
 30
0.0
 40
0
 41
0
  0
VERTEX
  8
0
 10
2.25
 20
4.86003
 30
0.0
 40
0
 41
0
  0
VERTEX
  8
0
 10
2.24333
 20
4.86003
 30
0.0
 40
0
 41
0
  0
VERTEX
  8
0
 10
2.24333
 20
4.85335
 30
0.0
 40
0
 41
0
  0
SEQEND
 8
0
  0
POLYLINE
  8
0
 62
     0
 66
     1
 10
0
 20
0
 30
0.0
 70
     1
 40
0
 41
0
  0
VERTEX
  8
0
 10
2.25
 20
4.85335
 30
0.0
 40
0
 41
0
  0
VERTEX
  8
0
 10
4.41
 20
4.85335
 30
0.0
 40
0
 41
0
  0
VERTEX
  8
0
 10
4.41
 20
4.86003
 30
0.0
 40
0
 41
0
  0
VERTEX
  8
0
 10
2.25
 20
4.86003
 30
0.0
 40
0
 41
0
  0
VERTEX
  8
0
 10
2.25
 20
4.85335
 30
0.0
 40
0
 41
0
  0
SEQEND
 8
0
  0
POLYLINE
  8
0
 62
     0
 66
     1
 10
0
 20
0
 30
0.0
 70
     1
 40
0
 41
0
  0
VERTEX
  8
0
 10
4.41
 20
4.85335
 30
0.0
 40
0
 41
0
  0
VERTEX
  8
0
 10
4.41667
 20
4.85335
 30
0.0
 40
0
 41
0
  0
VERTEX
  8
0
 10
4.41667
 20
4.86003
 30
0.0
 40
0
 41
0
  0
VERTEX
  8
0
 10
4.41
 20
4.86003
 30
0.0
 40
0
 41
0
  0
VERTEX
  8
0
 10
4.41
 20
4.85335
 30
0.0
 40
0
 41
0
  0
SEQEND
 8
0
  0
POLYLINE
  8
0
 62
     0
 66
     1
 10
0
 20
0
 30
0.0
 70
     1
 40
0
 41
0
  0
VERTEX
  8
0
 10
0.199978
 20
4.61664
 30
0.0
 40
0
 41
0
  0
VERTEX
  8
0
 10
0.206651
 20
4.61664
 30
0.0
 40
0
 41
0
  0
VERTEX
  8
0
 10
0.206651
 20
4.85335
 30
0.0
 40
0
 41
0
  0
VERTEX
  8
0
 10
0.199978
 20
4.85335
 30
0.0
 40
0
 41
0
  0
VERTEX
  8
0
 10
0.199978
 20
4.61664
 30
0.0
 40
0
 41
0
  0
SEQEND
 8
0
  0
POLYLINE
  8
0
 62
     0
 66
     1
 10
0
 20
0
 30
0.0
 70
     1
 40
0
 41
0
  0
VERTEX
  8
0
 10
2.24333
 20
4.61664
 30
0.0
 40
0
 41
0
  0
VERTEX
  8
0
 10
2.25
 20
4.61664
 30
0.0
 40
0
 41
0
  0
VERTEX
  8
0
 10
2.25
 20
4.85335
 30
0.0
 40
0
 41
0
  0
VERTEX
  8
0
 10
2.24333
 20
4.85335
 30
0.0
 40
0
 41
0
  0
VERTEX
  8
0
 10
2.24333
 20
4.61664
 30
0.0
 40
0
 41
0
  0
SEQEND
 8
0
  0
POLYLINE
  8
0
 62
     0
 66
     1
 10
0
 20
0
 30
0.0
 70
     1
 40
0
 41
0
  0
VERTEX
  8
0
 10
4.41
 20
4.61664
 30
0.0
 40
0
 41
0
  0
VERTEX
  8
0
 10
4.41667
 20
4.61664
 30
0.0
 40
0
 41
0
  0
VERTEX
  8
0
 10
4.41667
 20
4.85335
 30
0.0
 40
0
 41
0
  0
VERTEX
  8
0
 10
4.41
 20
4.85335
 30
0.0
 40
0
 41
0
  0
VERTEX
  8
0
 10
4.41
 20
4.61664
 30
0.0
 40
0
 41
0
  0
SEQEND
 8
0
  0
TEXT
  8
0
 62
     0
 10
0.278333
 20
4.42333
 30
0.0
 40
0.195
  1
Dr
 50
0
  0
TEXT
  8
0
 62
     0
 10
0.463206
 20
4.42333
 30
0.0
 40
0.195
  1
ai
 50
0
  0
TEXT
  8
0
 62
     0
 10
0.601578
 20
4.42333
 30
0.0
 40
0.195
  1
n
 50
0
  0
TEXT
  8
0
 62
     0
 10
0.703197
 20
4.42333
 30
0.0
 40
0.195
  1
 S
 50
0
  0
TEXT
  8
0
 62
     0
 10
0.836443
 20
4.42333
 30
0.0
 40
0.195
  1
i
 50
0
  0
TEXT
  8
0
 62
     0
 10
0.881446
 20
4.42333
 30
0.0
 40
0.195
  1
z
 50
0
  0
TEXT
  8
0
 62
     0
 10
0.953068
 20
4.42333
 30
0.0
 40
0.195
  1
e
 50
0
  0
TEXT
  8
0
 62
     0
 10
1.0497
 20
4.42333
 30
0.0
 40
0.195
  1
:
 50
0
  0
TEXT
  8
0
 62
     0
 10
2.32333
 20
4.42333
 30
0.0
 40
0.195
  1
3
 50
0
  0
TEXT
  8
0
 62
     0
 10
2.42167
 20
4.42333
 30
0.0
 40
0.195
  1
-
 50
0
  0
TEXT
  8
0
 62
     0
 10
2.48167
 20
4.42333
 30
0.0
 40
0.195
  1
1/
 50
0
  0
TEXT
  8
0
 62
     0
 10
2.65499
 20
4.42333
 30
0.0
 40
0.195
  1
2
 50
0
  0
TEXT
  8
0
 62
     0
 10
2.75333
 20
4.42333
 30
0.0
 40
0.195
  1
"
 50
0
  0
POLYLINE
  8
0
 62
     0
 66
     1
 10
0
 20
0
 30
0.0
 70
     1
 40
0
 41
0
  0
VERTEX
  8
0
 10
0.199978
 20
4.61003
 30
0.0
 40
0
 41
0
  0
VERTEX
  8
0
 10
0.206651
 20
4.61003
 30
0.0
 40
0
 41
0
  0
VERTEX
  8
0
 10
0.206651
 20
4.61664
 30
0.0
 40
0
 41
0
  0
VERTEX
  8
0
 10
0.199978
 20
4.61664
 30
0.0
 40
0
 41
0
  0
VERTEX
  8
0
 10
0.199978
 20
4.61003
 30
0.0
 40
0
 41
0
  0
SEQEND
 8
0
  0
POLYLINE
  8
0
 62
     0
 66
     1
 10
0
 20
0
 30
0.0
 70
     1
 40
0
 41
0
  0
VERTEX
  8
0
 10
0.206651
 20
4.61003
 30
0.0
 40
0
 41
0
  0
VERTEX
  8
0
 10
2.24333
 20
4.61003
 30
0.0
 40
0
 41
0
  0
VERTEX
  8
0
 10
2.24333
 20
4.61664
 30
0.0
 40
0
 41
0
  0
VERTEX
  8
0
 10
0.206651
 20
4.61664
 30
0.0
 40
0
 41
0
  0
VERTEX
  8
0
 10
0.206651
 20
4.61003
 30
0.0
 40
0
 41
0
  0
SEQEND
 8
0
  0
POLYLINE
  8
0
 62
     0
 66
     1
 10
0
 20
0
 30
0.0
 70
     1
 40
0
 41
0
  0
VERTEX
  8
0
 10
2.24333
 20
4.61003
 30
0.0
 40
0
 41
0
  0
VERTEX
  8
0
 10
2.25
 20
4.61003
 30
0.0
 40
0
 41
0
  0
VERTEX
  8
0
 10
2.25
 20
4.61664
 30
0.0
 40
0
 41
0
  0
VERTEX
  8
0
 10
2.24333
 20
4.61664
 30
0.0
 40
0
 41
0
  0
VERTEX
  8
0
 10
2.24333
 20
4.61003
 30
0.0
 40
0
 41
0
  0
SEQEND
 8
0
  0
POLYLINE
  8
0
 62
     0
 66
     1
 10
0
 20
0
 30
0.0
 70
     1
 40
0
 41
0
  0
VERTEX
  8
0
 10
2.25
 20
4.61003
 30
0.0
 40
0
 41
0
  0
VERTEX
  8
0
 10
4.41
 20
4.61003
 30
0.0
 40
0
 41
0
  0
VERTEX
  8
0
 10
4.41
 20
4.61664
 30
0.0
 40
0
 41
0
  0
VERTEX
  8
0
 10
2.25
 20
4.61664
 30
0.0
 40
0
 41
0
  0
VERTEX
  8
0
 10
2.25
 20
4.61003
 30
0.0
 40
0
 41
0
  0
SEQEND
 8
0
  0
POLYLINE
  8
0
 62
     0
 66
     1
 10
0
 20
0
 30
0.0
 70
     1
 40
0
 41
0
  0
VERTEX
  8
0
 10
4.41
 20
4.61003
 30
0.0
 40
0
 41
0
  0
VERTEX
  8
0
 10
4.41667
 20
4.61003
 30
0.0
 40
0
 41
0
  0
VERTEX
  8
0
 10
4.41667
 20
4.61664
 30
0.0
 40
0
 41
0
  0
VERTEX
  8
0
 10
4.41
 20
4.61664
 30
0.0
 40
0
 41
0
  0
VERTEX
  8
0
 10
4.41
 20
4.61003
 30
0.0
 40
0
 41
0
  0
SEQEND
 8
0
  0
POLYLINE
  8
0
 62
     0
 66
     1
 10
0
 20
0
 30
0.0
 70
     1
 40
0
 41
0
  0
VERTEX
  8
0
 10
0.199978
 20
4.37169
 30
0.0
 40
0
 41
0
  0
VERTEX
  8
0
 10
0.206651
 20
4.37169
 30
0.0
 40
0
 41
0
  0
VERTEX
  8
0
 10
0.206651
 20
4.61003
 30
0.0
 40
0
 41
0
  0
VERTEX
  8
0
 10
0.199978
 20
4.61003
 30
0.0
 40
0
 41
0
  0
VERTEX
  8
0
 10
0.199978
 20
4.37169
 30
0.0
 40
0
 41
0
  0
SEQEND
 8
0
  0
POLYLINE
  8
0
 62
     0
 66
     1
 10
0
 20
0
 30
0.0
 70
     1
 40
0
 41
0
  0
VERTEX
  8
0
 10
2.24333
 20
4.37169
 30
0.0
 40
0
 41
0
  0
VERTEX
  8
0
 10
2.25
 20
4.37169
 30
0.0
 40
0
 41
0
  0
VERTEX
  8
0
 10
2.25
 20
4.61003
 30
0.0
 40
0
 41
0
  0
VERTEX
  8
0
 10
2.24333
 20
4.61003
 30
0.0
 40
0
 41
0
  0
VERTEX
  8
0
 10
2.24333
 20
4.37169
 30
0.0
 40
0
 41
0
  0
SEQEND
 8
0
  0
POLYLINE
  8
0
 62
     0
 66
     1
 10
0
 20
0
 30
0.0
 70
     1
 40
0
 41
0
  0
VERTEX
  8
0
 10
4.41
 20
4.37169
 30
0.0
 40
0
 41
0
  0
VERTEX
  8
0
 10
4.41667
 20
4.37169
 30
0.0
 40
0
 41
0
  0
VERTEX
  8
0
 10
4.41667
 20
4.61003
 30
0.0
 40
0
 41
0
  0
VERTEX
  8
0
 10
4.41
 20
4.61003
 30
0.0
 40
0
 41
0
  0
VERTEX
  8
0
 10
4.41
 20
4.37169
 30
0.0
 40
0
 41
0
  0
SEQEND
 8
0
  0
TEXT
  8
0
 62
     0
 10
0.278333
 20
4.18
 30
0.0
 40
0.195
  1
D
 50
0
  0
TEXT
  8
0
 62
     0
 10
0.398332
 20
4.18
 30
0.0
 40
0.195
  1
r
 50
0
  0
TEXT
  8
0
 62
     0
 10
0.463325
 20
4.18
 30
0.0
 40
0.195
  1
a
 50
0
  0
TEXT
  8
0
 62
     0
 10
0.556638
 20
4.18
 30
0.0
 40
0.195
  1
i
 50
0
  0
TEXT
  8
0
 62
     0
 10
0.60166
 20
4.18
 30
0.0
 40
0.195
  1
n L
 50
0
  0
TEXT
  8
0
 62
     0
 10
0.828171
 20
4.18
 30
0.0
 40
0.195
  1
o
 50
0
  0
TEXT
  8
0
 62
     0
 10
0.931514
 20
4.18
 30
0.0
 40
0.195
  1
c
 50
0
  0
TEXT
  8
0
 62
     0
 10
1.01152
 20
4.18
 30
0.0
 40
0.195
  1
a
 50
0
  0
TEXT
  8
0
 62
     0
 10
1.10316
 20
4.18
 30
0.0
 40
0.195
  1
t
 50
0
  0
TEXT
  8
0
 62
     0
 10
1.16819
 20
4.18
 30
0.0
 40
0.195
  1
i
 50
0
  0
TEXT
  8
0
 62
     0
 10
1.21319
 20
4.18
 30
0.0
 40
0.195
  1
o
 50
0
  0
TEXT
  8
0
 62
     0
 10
1.31655
 20
4.18
 30
0.0
 40
0.195
  1
n:
 50
0
  0
TEXT
  8
0
 62
     0
 10
2.32333
 20
4.18
 30
0.0
 40
0.195
  1
M
 50
0
  0
TEXT
  8
0
 62
     0
 10
2.49001
 20
4.18
 30
0.0
 40
0.195
  1
i
 50
0
  0
TEXT
  8
0
 62
     0
 10
2.53504
 20
4.18
 30
0.0
 40
0.195
  1
ddl
 50
0
  0
TEXT
  8
0
 62
     0
 10
2.78318
 20
4.18
 30
0.0
 40
0.195
  1
e
 50
0
  0
POLYLINE
  8
0
 62
     0
 66
     1
 10
0
 20
0
 30
0.0
 70
     1
 40
0
 41
0
  0
VERTEX
  8
0
 10
0.199978
 20
4.36501
 30
0.0
 40
0
 41
0
  0
VERTEX
  8
0
 10
0.206651
 20
4.36501
 30
0.0
 40
0
 41
0
  0
VERTEX
  8
0
 10
0.206651
 20
4.37169
 30
0.0
 40
0
 41
0
  0
VERTEX
  8
0
 10
0.199978
 20
4.37169
 30
0.0
 40
0
 41
0
  0
VERTEX
  8
0
 10
0.199978
 20
4.36501
 30
0.0
 40
0
 41
0
  0
SEQEND
 8
0
  0
POLYLINE
  8
0
 62
     0
 66
     1
 10
0
 20
0
 30
0.0
 70
     1
 40
0
 41
0
  0
VERTEX
  8
0
 10
0.206651
 20
4.36501
 30
0.0
 40
0
 41
0
  0
VERTEX
  8
0
 10
2.24333
 20
4.36501
 30
0.0
 40
0
 41
0
  0
VERTEX
  8
0
 10
2.24333
 20
4.37169
 30
0.0
 40
0
 41
0
  0
VERTEX
  8
0
 10
0.206651
 20
4.37169
 30
0.0
 40
0
 41
0
  0
VERTEX
  8
0
 10
0.206651
 20
4.36501
 30
0.0
 40
0
 41
0
  0
SEQEND
 8
0
  0
POLYLINE
  8
0
 62
     0
 66
     1
 10
0
 20
0
 30
0.0
 70
     1
 40
0
 41
0
  0
VERTEX
  8
0
 10
2.24333
 20
4.36501
 30
0.0
 40
0
 41
0
  0
VERTEX
  8
0
 10
2.25
 20
4.36501
 30
0.0
 40
0
 41
0
  0
VERTEX
  8
0
 10
2.25
 20
4.37169
 30
0.0
 40
0
 41
0
  0
VERTEX
  8
0
 10
2.24333
 20
4.37169
 30
0.0
 40
0
 41
0
  0
VERTEX
  8
0
 10
2.24333
 20
4.36501
 30
0.0
 40
0
 41
0
  0
SEQEND
 8
0
  0
POLYLINE
  8
0
 62
     0
 66
     1
 10
0
 20
0
 30
0.0
 70
     1
 40
0
 41
0
  0
VERTEX
  8
0
 10
2.25
 20
4.36501
 30
0.0
 40
0
 41
0
  0
VERTEX
  8
0
 10
4.41
 20
4.36501
 30
0.0
 40
0
 41
0
  0
VERTEX
  8
0
 10
4.41
 20
4.37169
 30
0.0
 40
0
 41
0
  0
VERTEX
  8
0
 10
2.25
 20
4.37169
 30
0.0
 40
0
 41
0
  0
VERTEX
  8
0
 10
2.25
 20
4.36501
 30
0.0
 40
0
 41
0
  0
SEQEND
 8
0
  0
POLYLINE
  8
0
 62
     0
 66
     1
 10
0
 20
0
 30
0.0
 70
     1
 40
0
 41
0
  0
VERTEX
  8
0
 10
4.41
 20
4.36501
 30
0.0
 40
0
 41
0
  0
VERTEX
  8
0
 10
4.41667
 20
4.36501
 30
0.0
 40
0
 41
0
  0
VERTEX
  8
0
 10
4.41667
 20
4.37169
 30
0.0
 40
0
 41
0
  0
VERTEX
  8
0
 10
4.41
 20
4.37169
 30
0.0
 40
0
 41
0
  0
VERTEX
  8
0
 10
4.41
 20
4.36501
 30
0.0
 40
0
 41
0
  0
SEQEND
 8
0
  0
POLYLINE
  8
0
 62
     0
 66
     1
 10
0
 20
0
 30
0.0
 70
     1
 40
0
 41
0
  0
VERTEX
  8
0
 10
0.199978
 20
4.12668
 30
0.0
 40
0
 41
0
  0
VERTEX
  8
0
 10
0.206651
 20
4.12668
 30
0.0
 40
0
 41
0
  0
VERTEX
  8
0
 10
0.206651
 20
4.36501
 30
0.0
 40
0
 41
0
  0
VERTEX
  8
0
 10
0.199978
 20
4.36501
 30
0.0
 40
0
 41
0
  0
VERTEX
  8
0
 10
0.199978
 20
4.12668
 30
0.0
 40
0
 41
0
  0
SEQEND
 8
0
  0
POLYLINE
  8
0
 62
     0
 66
     1
 10
0
 20
0
 30
0.0
 70
     1
 40
0
 41
0
  0
VERTEX
  8
0
 10
2.24333
 20
4.12668
 30
0.0
 40
0
 41
0
  0
VERTEX
  8
0
 10
2.25
 20
4.12668
 30
0.0
 40
0
 41
0
  0
VERTEX
  8
0
 10
2.25
 20
4.36501
 30
0.0
 40
0
 41
0
  0
VERTEX
  8
0
 10
2.24333
 20
4.36501
 30
0.0
 40
0
 41
0
  0
VERTEX
  8
0
 10
2.24333
 20
4.12668
 30
0.0
 40
0
 41
0
  0
SEQEND
 8
0
  0
POLYLINE
  8
0
 62
     0
 66
     1
 10
0
 20
0
 30
0.0
 70
     1
 40
0
 41
0
  0
VERTEX
  8
0
 10
4.41
 20
4.12668
 30
0.0
 40
0
 41
0
  0
VERTEX
  8
0
 10
4.41667
 20
4.12668
 30
0.0
 40
0
 41
0
  0
VERTEX
  8
0
 10
4.41667
 20
4.36501
 30
0.0
 40
0
 41
0
  0
VERTEX
  8
0
 10
4.41
 20
4.36501
 30
0.0
 40
0
 41
0
  0
VERTEX
  8
0
 10
4.41
 20
4.12668
 30
0.0
 40
0
 41
0
  0
SEQEND
 8
0
  0
TEXT
  8
0
 62
     0
 10
0.278333
 20
3.935
 30
0.0
 40
0.195
  1
M
 50
0
  0
TEXT
  8
0
 62
     0
 10
0.445017
 20
3.935
 30
0.0
 40
0.195
  1
i
 50
0
  0
TEXT
  8
0
 62
     0
 10
0.490039
 20
3.935
 30
0.0
 40
0.195
  1
ni
 50
0
  0
TEXT
  8
0
 62
     0
 10
0.636622
 20
3.935
 30
0.0
 40
0.195
  1
mum 
 50
0
  0
TEXT
  8
0
 62
     0
 10
1.09167
 20
3.935
 30
0.0
 40
0.195
  1
C
 50
0
  0
TEXT
  8
0
 62
     0
 10
1.19497
 20
3.935
 30
0.0
 40
0.195
  1
a
 50
0
  0
TEXT
  8
0
 62
     0
 10
1.28829
 20
3.935
 30
0.0
 40
0.195
  1
b
 50
0
  0
TEXT
  8
0
 62
     0
 10
1.3899
 20
3.935
 30
0.0
 40
0.195
  1
i
 50
0
  0
TEXT
  8
0
 62
     0
 10
1.43492
 20
3.935
 30
0.0
 40
0.195
  1
n
 50
0
  0
TEXT
  8
0
 62
     0
 10
1.53819
 20
3.935
 30
0.0
 40
0.195
  1
e
 50
0
  0
TEXT
  8
0
 62
     0
 10
1.63317
 20
3.935
 30
0.0
 40
0.195
  1
t S
 50
0
  0
TEXT
  8
0
 62
     0
 10
1.83137
 20
3.935
 30
0.0
 40
0.195
  1
i
 50
0
  0
TEXT
  8
0
 62
     0
 10
1.87638
 20
3.935
 30
0.0
 40
0.195
  1
z
 50
0
  0
TEXT
  8
0
 62
     0
 10
1.94968
 20
3.935
 30
0.0
 40
0.195
  1
e:
 50
0
  0
TEXT
  8
0
 62
     0
 10
2.32333
 20
3.935
 30
0.0
 40
0.195
  1
36
 50
0
  0
TEXT
  8
0
 62
     0
 10
2.52
 20
3.935
 30
0.0
 40
0.195
  1
"
 50
0
  0
POLYLINE
  8
0
 62
     0
 66
     1
 10
0
 20
0
 30
0.0
 70
     1
 40
0
 41
0
  0
VERTEX
  8
0
 10
0.199978
 20
4.12001
 30
0.0
 40
0
 41
0
  0
VERTEX
  8
0
 10
0.206651
 20
4.12001
 30
0.0
 40
0
 41
0
  0
VERTEX
  8
0
 10
0.206651
 20
4.12668
 30
0.0
 40
0
 41
0
  0
VERTEX
  8
0
 10
0.199978
 20
4.12668
 30
0.0
 40
0
 41
0
  0
VERTEX
  8
0
 10
0.199978
 20
4.12001
 30
0.0
 40
0
 41
0
  0
SEQEND
 8
0
  0
POLYLINE
  8
0
 62
     0
 66
     1
 10
0
 20
0
 30
0.0
 70
     1
 40
0
 41
0
  0
VERTEX
  8
0
 10
0.206651
 20
4.12001
 30
0.0
 40
0
 41
0
  0
VERTEX
  8
0
 10
2.24333
 20
4.12001
 30
0.0
 40
0
 41
0
  0
VERTEX
  8
0
 10
2.24333
 20
4.12668
 30
0.0
 40
0
 41
0
  0
VERTEX
  8
0
 10
0.206651
 20
4.12668
 30
0.0
 40
0
 41
0
  0
VERTEX
  8
0
 10
0.206651
 20
4.12001
 30
0.0
 40
0
 41
0
  0
SEQEND
 8
0
  0
POLYLINE
  8
0
 62
     0
 66
     1
 10
0
 20
0
 30
0.0
 70
     1
 40
0
 41
0
  0
VERTEX
  8
0
 10
2.24333
 20
4.12001
 30
0.0
 40
0
 41
0
  0
VERTEX
  8
0
 10
2.25
 20
4.12001
 30
0.0
 40
0
 41
0
  0
VERTEX
  8
0
 10
2.25
 20
4.12668
 30
0.0
 40
0
 41
0
  0
VERTEX
  8
0
 10
2.24333
 20
4.12668
 30
0.0
 40
0
 41
0
  0
VERTEX
  8
0
 10
2.24333
 20
4.12001
 30
0.0
 40
0
 41
0
  0
SEQEND
 8
0
  0
POLYLINE
  8
0
 62
     0
 66
     1
 10
0
 20
0
 30
0.0
 70
     1
 40
0
 41
0
  0
VERTEX
  8
0
 10
2.25
 20
4.12001
 30
0.0
 40
0
 41
0
  0
VERTEX
  8
0
 10
4.41
 20
4.12001
 30
0.0
 40
0
 41
0
  0
VERTEX
  8
0
 10
4.41
 20
4.12668
 30
0.0
 40
0
 41
0
  0
VERTEX
  8
0
 10
2.25
 20
4.12668
 30
0.0
 40
0
 41
0
  0
VERTEX
  8
0
 10
2.25
 20
4.12001
 30
0.0
 40
0
 41
0
  0
SEQEND
 8
0
  0
POLYLINE
  8
0
 62
     0
 66
     1
 10
0
 20
0
 30
0.0
 70
     1
 40
0
 41
0
  0
VERTEX
  8
0
 10
4.41
 20
4.12001
 30
0.0
 40
0
 41
0
  0
VERTEX
  8
0
 10
4.41667
 20
4.12001
 30
0.0
 40
0
 41
0
  0
VERTEX
  8
0
 10
4.41667
 20
4.12668
 30
0.0
 40
0
 41
0
  0
VERTEX
  8
0
 10
4.41
 20
4.12668
 30
0.0
 40
0
 41
0
  0
VERTEX
  8
0
 10
4.41
 20
4.12001
 30
0.0
 40
0
 41
0
  0
SEQEND
 8
0
  0
POLYLINE
  8
0
 62
     0
 66
     1
 10
0
 20
0
 30
0.0
 70
     1
 40
0
 41
0
  0
VERTEX
  8
0
 10
0.199978
 20
3.88336
 30
0.0
 40
0
 41
0
  0
VERTEX
  8
0
 10
0.206651
 20
3.88336
 30
0.0
 40
0
 41
0
  0
VERTEX
  8
0
 10
0.206651
 20
4.12001
 30
0.0
 40
0
 41
0
  0
VERTEX
  8
0
 10
0.199978
 20
4.12001
 30
0.0
 40
0
 41
0
  0
VERTEX
  8
0
 10
0.199978
 20
3.88336
 30
0.0
 40
0
 41
0
  0
SEQEND
 8
0
  0
POLYLINE
  8
0
 62
     0
 66
     1
 10
0
 20
0
 30
0.0
 70
     1
 40
0
 41
0
  0
VERTEX
  8
0
 10
2.24333
 20
3.88336
 30
0.0
 40
0
 41
0
  0
VERTEX
  8
0
 10
2.25
 20
3.88336
 30
0.0
 40
0
 41
0
  0
VERTEX
  8
0
 10
2.25
 20
4.12001
 30
0.0
 40
0
 41
0
  0
VERTEX
  8
0
 10
2.24333
 20
4.12001
 30
0.0
 40
0
 41
0
  0
VERTEX
  8
0
 10
2.24333
 20
3.88336
 30
0.0
 40
0
 41
0
  0
SEQEND
 8
0
  0
POLYLINE
  8
0
 62
     0
 66
     1
 10
0
 20
0
 30
0.0
 70
     1
 40
0
 41
0
  0
VERTEX
  8
0
 10
4.41
 20
3.88336
 30
0.0
 40
0
 41
0
  0
VERTEX
  8
0
 10
4.41667
 20
3.88336
 30
0.0
 40
0
 41
0
  0
VERTEX
  8
0
 10
4.41667
 20
4.12001
 30
0.0
 40
0
 41
0
  0
VERTEX
  8
0
 10
4.41
 20
4.12001
 30
0.0
 40
0
 41
0
  0
VERTEX
  8
0
 10
4.41
 20
3.88336
 30
0.0
 40
0
 41
0
  0
SEQEND
 8
0
  0
TEXT
  8
0
 62
     0
 10
0.278333
 20
3.69167
 30
0.0
 40
0.195
  1
M
 50
0
  0
TEXT
  8
0
 62
     0
 10
0.445017
 20
3.69167
 30
0.0
 40
0.195
  1
o
 50
0
  0
TEXT
  8
0
 62
     0
 10
0.548358
 20
3.69167
 30
0.0
 40
0.195
  1
un
 50
0
  0
TEXT
  8
0
 62
     0
 10
0.749885
 20
3.69167
 30
0.0
 40
0.195
  1
t
 50
0
  0
TEXT
  8
0
 62
     0
 10
0.814894
 20
3.69167
 30
0.0
 40
0.195
  1
i
 50
0
  0
TEXT
  8
0
 62
     0
 10
0.859917
 20
3.69167
 30
0.0
 40
0.195
  1
ng
 50
0
  0
TEXT
  8
0
 62
     0
 10
1.0531
 20
3.69167
 30
0.0
 40
0.195
  1
 H
 50
0
  0
TEXT
  8
0
 62
     0
 10
1.21807
 20
3.69167
 30
0.0
 40
0.195
  1
a
 50
0
  0
TEXT
  8
0
 62
     0
 10
1.31138
 20
3.69167
 30
0.0
 40
0.195
  1
r
 50
0
  0
TEXT
  8
0
 62
     0
 10
1.37639
 20
3.69167
 30
0.0
 40
0.195
  1
dw
 50
0
  0
TEXT
  8
0
 62
     0
 10
1.61626
 20
3.69167
 30
0.0
 40
0.195
  1
a
 50
0
  0
TEXT
  8
0
 62
     0
 10
1.70957
 20
3.69167
 30
0.0
 40
0.195
  1
r
 50
0
  0
TEXT
  8
0
 62
     0
 10
1.77458
 20
3.69167
 30
0.0
 40
0.195
  1
e
 50
0
  0
TEXT
  8
0
 62
     0
 10
1.87121
 20
3.69167
 30
0.0
 40
0.195
  1
:
 50
0
  0
TEXT
  8
0
 62
     0
 10
2.32333
 20
3.69167
 30
0.0
 40
0.195
  1
U
 50
0
  0
TEXT
  8
0
 62
     0
 10
2.44832
 20
3.69167
 30
0.0
 40
0.195
  1
nde
 50
0
  0
TEXT
  8
0
 62
     0
 10
2.7481
 20
3.69167
 30
0.0
 40
0.195
  1
r
 50
0
  0
TEXT
  8
0
 62
     0
 10
2.81643
 20
3.69167
 30
0.0
 40
0.195
  1
mo
 50
0
  0
TEXT
  8
0
 62
     0
 10
3.07476
 20
3.69167
 30
0.0
 40
0.195
  1
un
 50
0
  0
TEXT
  8
0
 62
     0
 10
3.27629
 20
3.69167
 30
0.0
 40
0.195
  1
t
 50
0
  0
TEXT
  8
0
 62
     0
 10
3.34131
 20
3.69167
 30
0.0
 40
0.195
  1
 br
 50
0
  0
TEXT
  8
0
 62
     0
 10
3.55115
 20
3.69167
 30
0.0
 40
0.195
  1
a
 50
0
  0
TEXT
  8
0
 62
     0
 10
3.64447
 20
3.69167
 30
0.0
 40
0.195
  1
ck
 50
0
  0
TEXT
  8
0
 62
     0
 10
3.80782
 20
3.69167
 30
0.0
 40
0.195
  1
e
 50
0
  0
TEXT
  8
0
 62
     0
 10
3.90279
 20
3.69167
 30
0.0
 40
0.195
  1
t
 50
0
  0
TEXT
  8
0
 62
     0
 10
3.96949
 20
3.69167
 30
0.0
 40
0.195
  1
s
 50
0
  0
POLYLINE
  8
0
 62
     0
 66
     1
 10
0
 20
0
 30
0.0
 70
     1
 40
0
 41
0
  0
VERTEX
  8
0
 10
0.199978
 20
3.87668
 30
0.0
 40
0
 41
0
  0
VERTEX
  8
0
 10
0.206651
 20
3.87668
 30
0.0
 40
0
 41
0
  0
VERTEX
  8
0
 10
0.206651
 20
3.88336
 30
0.0
 40
0
 41
0
  0
VERTEX
  8
0
 10
0.199978
 20
3.88336
 30
0.0
 40
0
 41
0
  0
VERTEX
  8
0
 10
0.199978
 20
3.87668
 30
0.0
 40
0
 41
0
  0
SEQEND
 8
0
  0
POLYLINE
  8
0
 62
     0
 66
     1
 10
0
 20
0
 30
0.0
 70
     1
 40
0
 41
0
  0
VERTEX
  8
0
 10
0.206651
 20
3.87668
 30
0.0
 40
0
 41
0
  0
VERTEX
  8
0
 10
2.24333
 20
3.87668
 30
0.0
 40
0
 41
0
  0
VERTEX
  8
0
 10
2.24333
 20
3.88336
 30
0.0
 40
0
 41
0
  0
VERTEX
  8
0
 10
0.206651
 20
3.88336
 30
0.0
 40
0
 41
0
  0
VERTEX
  8
0
 10
0.206651
 20
3.87668
 30
0.0
 40
0
 41
0
  0
SEQEND
 8
0
  0
POLYLINE
  8
0
 62
     0
 66
     1
 10
0
 20
0
 30
0.0
 70
     1
 40
0
 41
0
  0
VERTEX
  8
0
 10
2.24333
 20
3.87668
 30
0.0
 40
0
 41
0
  0
VERTEX
  8
0
 10
2.25
 20
3.87668
 30
0.0
 40
0
 41
0
  0
VERTEX
  8
0
 10
2.25
 20
3.88336
 30
0.0
 40
0
 41
0
  0
VERTEX
  8
0
 10
2.24333
 20
3.88336
 30
0.0
 40
0
 41
0
  0
VERTEX
  8
0
 10
2.24333
 20
3.87668
 30
0.0
 40
0
 41
0
  0
SEQEND
 8
0
  0
POLYLINE
  8
0
 62
     0
 66
     1
 10
0
 20
0
 30
0.0
 70
     1
 40
0
 41
0
  0
VERTEX
  8
0
 10
2.25
 20
3.87668
 30
0.0
 40
0
 41
0
  0
VERTEX
  8
0
 10
4.41
 20
3.87668
 30
0.0
 40
0
 41
0
  0
VERTEX
  8
0
 10
4.41
 20
3.88336
 30
0.0
 40
0
 41
0
  0
VERTEX
  8
0
 10
2.25
 20
3.88336
 30
0.0
 40
0
 41
0
  0
VERTEX
  8
0
 10
2.25
 20
3.87668
 30
0.0
 40
0
 41
0
  0
SEQEND
 8
0
  0
POLYLINE
  8
0
 62
     0
 66
     1
 10
0
 20
0
 30
0.0
 70
     1
 40
0
 41
0
  0
VERTEX
  8
0
 10
4.41
 20
3.87668
 30
0.0
 40
0
 41
0
  0
VERTEX
  8
0
 10
4.41667
 20
3.87668
 30
0.0
 40
0
 41
0
  0
VERTEX
  8
0
 10
4.41667
 20
3.88336
 30
0.0
 40
0
 41
0
  0
VERTEX
  8
0
 10
4.41
 20
3.88336
 30
0.0
 40
0
 41
0
  0
VERTEX
  8
0
 10
4.41
 20
3.87668
 30
0.0
 40
0
 41
0
  0
SEQEND
 8
0
  0
POLYLINE
  8
0
 62
     0
 66
     1
 10
0
 20
0
 30
0.0
 70
     1
 40
0
 41
0
  0
VERTEX
  8
0
 10
0.199978
 20
3.63835
 30
0.0
 40
0
 41
0
  0
VERTEX
  8
0
 10
0.206651
 20
3.63835
 30
0.0
 40
0
 41
0
  0
VERTEX
  8
0
 10
0.206651
 20
3.87663
 30
0.0
 40
0
 41
0
  0
VERTEX
  8
0
 10
0.199978
 20
3.87663
 30
0.0
 40
0
 41
0
  0
VERTEX
  8
0
 10
0.199978
 20
3.63835
 30
0.0
 40
0
 41
0
  0
SEQEND
 8
0
  0
POLYLINE
  8
0
 62
     0
 66
     1
 10
0
 20
0
 30
0.0
 70
     1
 40
0
 41
0
  0
VERTEX
  8
0
 10
2.24333
 20
3.63835
 30
0.0
 40
0
 41
0
  0
VERTEX
  8
0
 10
2.25
 20
3.63835
 30
0.0
 40
0
 41
0
  0
VERTEX
  8
0
 10
2.25
 20
3.87663
 30
0.0
 40
0
 41
0
  0
VERTEX
  8
0
 10
2.24333
 20
3.87663
 30
0.0
 40
0
 41
0
  0
VERTEX
  8
0
 10
2.24333
 20
3.63835
 30
0.0
 40
0
 41
0
  0
SEQEND
 8
0
  0
POLYLINE
  8
0
 62
     0
 66
     1
 10
0
 20
0
 30
0.0
 70
     1
 40
0
 41
0
  0
VERTEX
  8
0
 10
4.41
 20
3.63835
 30
0.0
 40
0
 41
0
  0
VERTEX
  8
0
 10
4.41667
 20
3.63835
 30
0.0
 40
0
 41
0
  0
VERTEX
  8
0
 10
4.41667
 20
3.87663
 30
0.0
 40
0
 41
0
  0
VERTEX
  8
0
 10
4.41
 20
3.87663
 30
0.0
 40
0
 41
0
  0
VERTEX
  8
0
 10
4.41
 20
3.63835
 30
0.0
 40
0
 41
0
  0
SEQEND
 8
0
  0
TEXT
  8
0
 62
     0
 10
0.278333
 20
3.44667
 30
0.0
 40
0.195
  1
C
 50
0
  0
TEXT
  8
0
 62
     0
 10
0.381644
 20
3.44667
 30
0.0
 40
0.195
  1
ut
 50
0
  0
TEXT
  8
0
 62
     0
 10
0.54656
 20
3.44667
 30
0.0
 40
0.195
  1
o
 50
0
  0
TEXT
  8
0
 62
     0
 10
0.649901
 20
3.44667
 30
0.0
 40
0.195
  1
ut
 50
0
  0
TEXT
  8
0
 62
     0
 10
0.816494
 20
3.44667
 30
0.0
 40
0.195
  1
 T
 50
0
  0
TEXT
  8
0
 62
     0
 10
0.938119
 20
3.44667
 30
0.0
 40
0.195
  1
e
 50
0
  0
TEXT
  8
0
 62
     0
 10
1.03475
 20
3.44667
 30
0.0
 40
0.195
  1
mpl
 50
0
  0
TEXT
  8
0
 62
     0
 10
1.33632
 20
3.44667
 30
0.0
 40
0.195
  1
a
 50
0
  0
TEXT
  8
0
 62
     0
 10
1.42797
 20
3.44667
 30
0.0
 40
0.195
  1
t
 50
0
  0
TEXT
  8
0
 62
     0
 10
1.49132
 20
3.44667
 30
0.0
 40
0.195
  1
e
 50
0
  0
TEXT
  8
0
 62
     0
 10
1.58796
 20
3.44667
 30
0.0
 40
0.195
  1
:
 50
0
  0
TEXT
  8
0
 62
     0
 10
2.32333
 20
3.44667
 30
0.0
 40
0.195
  1
A
 50
0
  0
TEXT
  8
0
 62
     0
 10
2.43329
 20
3.44667
 30
0.0
 40
0.195
  1
v
 50
0
  0
TEXT
  8
0
 62
     0
 10
2.51824
 20
3.44667
 30
0.0
 40
0.195
  1
a
 50
0
  0
TEXT
  8
0
 62
     0
 10
2.61149
 20
3.44667
 30
0.0
 40
0.195
  1
i
 50
0
  0
TEXT
  8
0
 62
     0
 10
2.65646
 20
3.44667
 30
0.0
 40
0.195
  1
l
 50
0
  0
TEXT
  8
0
 62
     0
 10
2.70142
 20
3.44667
 30
0.0
 40
0.195
  1
a
 50
0
  0
TEXT
  8
0
 62
     0
 10
2.79469
 20
3.44667
 30
0.0
 40
0.195
  1
b
 50
0
  0
TEXT
  8
0
 62
     0
 10
2.89626
 20
3.44667
 30
0.0
 40
0.195
  1
l
 50
0
  0
TEXT
  8
0
 62
     0
 10
2.94124
 20
3.44667
 30
0.0
 40
0.195
  1
e
 50
0
  0
POLYLINE
  8
0
 62
     0
 66
     1
 10
0
 20
0
 30
0.0
 70
     1
 40
0
 41
0
  0
VERTEX
  8
0
 10
0.199978
 20
3.63167
 30
0.0
 40
0
 41
0
  0
VERTEX
  8
0
 10
0.206651
 20
3.63167
 30
0.0
 40
0
 41
0
  0
VERTEX
  8
0
 10
0.206651
 20
3.63835
 30
0.0
 40
0
 41
0
  0
VERTEX
  8
0
 10
0.199978
 20
3.63835
 30
0.0
 40
0
 41
0
  0
VERTEX
  8
0
 10
0.199978
 20
3.63167
 30
0.0
 40
0
 41
0
  0
SEQEND
 8
0
  0
POLYLINE
  8
0
 62
     0
 66
     1
 10
0
 20
0
 30
0.0
 70
     1
 40
0
 41
0
  0
VERTEX
  8
0
 10
0.206651
 20
3.63167
 30
0.0
 40
0
 41
0
  0
VERTEX
  8
0
 10
2.24333
 20
3.63167
 30
0.0
 40
0
 41
0
  0
VERTEX
  8
0
 10
2.24333
 20
3.63835
 30
0.0
 40
0
 41
0
  0
VERTEX
  8
0
 10
0.206651
 20
3.63835
 30
0.0
 40
0
 41
0
  0
VERTEX
  8
0
 10
0.206651
 20
3.63167
 30
0.0
 40
0
 41
0
  0
SEQEND
 8
0
  0
POLYLINE
  8
0
 62
     0
 66
     1
 10
0
 20
0
 30
0.0
 70
     1
 40
0
 41
0
  0
VERTEX
  8
0
 10
2.24333
 20
3.63167
 30
0.0
 40
0
 41
0
  0
VERTEX
  8
0
 10
2.25
 20
3.63167
 30
0.0
 40
0
 41
0
  0
VERTEX
  8
0
 10
2.25
 20
3.63835
 30
0.0
 40
0
 41
0
  0
VERTEX
  8
0
 10
2.24333
 20
3.63835
 30
0.0
 40
0
 41
0
  0
VERTEX
  8
0
 10
2.24333
 20
3.63167
 30
0.0
 40
0
 41
0
  0
SEQEND
 8
0
  0
POLYLINE
  8
0
 62
     0
 66
     1
 10
0
 20
0
 30
0.0
 70
     1
 40
0
 41
0
  0
VERTEX
  8
0
 10
2.25
 20
3.63167
 30
0.0
 40
0
 41
0
  0
VERTEX
  8
0
 10
4.41
 20
3.63167
 30
0.0
 40
0
 41
0
  0
VERTEX
  8
0
 10
4.41
 20
3.63835
 30
0.0
 40
0
 41
0
  0
VERTEX
  8
0
 10
2.25
 20
3.63835
 30
0.0
 40
0
 41
0
  0
VERTEX
  8
0
 10
2.25
 20
3.63167
 30
0.0
 40
0
 41
0
  0
SEQEND
 8
0
  0
POLYLINE
  8
0
 62
     0
 66
     1
 10
0
 20
0
 30
0.0
 70
     1
 40
0
 41
0
  0
VERTEX
  8
0
 10
4.41
 20
3.63167
 30
0.0
 40
0
 41
0
  0
VERTEX
  8
0
 10
4.41667
 20
3.63167
 30
0.0
 40
0
 41
0
  0
VERTEX
  8
0
 10
4.41667
 20
3.63835
 30
0.0
 40
0
 41
0
  0
VERTEX
  8
0
 10
4.41
 20
3.63835
 30
0.0
 40
0
 41
0
  0
VERTEX
  8
0
 10
4.41
 20
3.63167
 30
0.0
 40
0
 41
0
  0
SEQEND
 8
0
  0
POLYLINE
  8
0
 62
     0
 66
     1
 10
0
 20
0
 30
0.0
 70
     1
 40
0
 41
0
  0
VERTEX
  8
0
 10
0.199978
 20
3.39501
 30
0.0
 40
0
 41
0
  0
VERTEX
  8
0
 10
0.206651
 20
3.39501
 30
0.0
 40
0
 41
0
  0
VERTEX
  8
0
 10
0.206651
 20
3.63167
 30
0.0
 40
0
 41
0
  0
VERTEX
  8
0
 10
0.199978
 20
3.63167
 30
0.0
 40
0
 41
0
  0
VERTEX
  8
0
 10
0.199978
 20
3.39501
 30
0.0
 40
0
 41
0
  0
SEQEND
 8
0
  0
POLYLINE
  8
0
 62
     0
 66
     1
 10
0
 20
0
 30
0.0
 70
     1
 40
0
 41
0
  0
VERTEX
  8
0
 10
0.199978
 20
3.38835
 30
0.0
 40
0
 41
0
  0
VERTEX
  8
0
 10
0.206651
 20
3.38835
 30
0.0
 40
0
 41
0
  0
VERTEX
  8
0
 10
0.206651
 20
3.39501
 30
0.0
 40
0
 41
0
  0
VERTEX
  8
0
 10
0.199978
 20
3.39501
 30
0.0
 40
0
 41
0
  0
VERTEX
  8
0
 10
0.199978
 20
3.38835
 30
0.0
 40
0
 41
0
  0
SEQEND
 8
0
  0
POLYLINE
  8
0
 62
     0
 66
     1
 10
0
 20
0
 30
0.0
 70
     1
 40
0
 41
0
  0
VERTEX
  8
0
 10
0.199978
 20
3.38835
 30
0.0
 40
0
 41
0
  0
VERTEX
  8
0
 10
0.206651
 20
3.38835
 30
0.0
 40
0
 41
0
  0
VERTEX
  8
0
 10
0.206651
 20
3.39501
 30
0.0
 40
0
 41
0
  0
VERTEX
  8
0
 10
0.199978
 20
3.39501
 30
0.0
 40
0
 41
0
  0
VERTEX
  8
0
 10
0.199978
 20
3.38835
 30
0.0
 40
0
 41
0
  0
SEQEND
 8
0
  0
POLYLINE
  8
0
 62
     0
 66
     1
 10
0
 20
0
 30
0.0
 70
     1
 40
0
 41
0
  0
VERTEX
  8
0
 10
0.206651
 20
3.38835
 30
0.0
 40
0
 41
0
  0
VERTEX
  8
0
 10
2.24333
 20
3.38835
 30
0.0
 40
0
 41
0
  0
VERTEX
  8
0
 10
2.24333
 20
3.39501
 30
0.0
 40
0
 41
0
  0
VERTEX
  8
0
 10
0.206651
 20
3.39501
 30
0.0
 40
0
 41
0
  0
VERTEX
  8
0
 10
0.206651
 20
3.38835
 30
0.0
 40
0
 41
0
  0
SEQEND
 8
0
  0
POLYLINE
  8
0
 62
     0
 66
     1
 10
0
 20
0
 30
0.0
 70
     1
 40
0
 41
0
  0
VERTEX
  8
0
 10
2.24333
 20
3.39501
 30
0.0
 40
0
 41
0
  0
VERTEX
  8
0
 10
2.25
 20
3.39501
 30
0.0
 40
0
 41
0
  0
VERTEX
  8
0
 10
2.25
 20
3.63167
 30
0.0
 40
0
 41
0
  0
VERTEX
  8
0
 10
2.24333
 20
3.63167
 30
0.0
 40
0
 41
0
  0
VERTEX
  8
0
 10
2.24333
 20
3.39501
 30
0.0
 40
0
 41
0
  0
SEQEND
 8
0
  0
POLYLINE
  8
0
 62
     0
 66
     1
 10
0
 20
0
 30
0.0
 70
     1
 40
0
 41
0
  0
VERTEX
  8
0
 10
2.24333
 20
3.38835
 30
0.0
 40
0
 41
0
  0
VERTEX
  8
0
 10
2.25
 20
3.38835
 30
0.0
 40
0
 41
0
  0
VERTEX
  8
0
 10
2.25
 20
3.39501
 30
0.0
 40
0
 41
0
  0
VERTEX
  8
0
 10
2.24333
 20
3.39501
 30
0.0
 40
0
 41
0
  0
VERTEX
  8
0
 10
2.24333
 20
3.38835
 30
0.0
 40
0
 41
0
  0
SEQEND
 8
0
  0
POLYLINE
  8
0
 62
     0
 66
     1
 10
0
 20
0
 30
0.0
 70
     1
 40
0
 41
0
  0
VERTEX
  8
0
 10
2.25
 20
3.38835
 30
0.0
 40
0
 41
0
  0
VERTEX
  8
0
 10
4.41
 20
3.38835
 30
0.0
 40
0
 41
0
  0
VERTEX
  8
0
 10
4.41
 20
3.39501
 30
0.0
 40
0
 41
0
  0
VERTEX
  8
0
 10
2.25
 20
3.39501
 30
0.0
 40
0
 41
0
  0
VERTEX
  8
0
 10
2.25
 20
3.38835
 30
0.0
 40
0
 41
0
  0
SEQEND
 8
0
  0
POLYLINE
  8
0
 62
     0
 66
     1
 10
0
 20
0
 30
0.0
 70
     1
 40
0
 41
0
  0
VERTEX
  8
0
 10
4.41
 20
3.39501
 30
0.0
 40
0
 41
0
  0
VERTEX
  8
0
 10
4.41667
 20
3.39501
 30
0.0
 40
0
 41
0
  0
VERTEX
  8
0
 10
4.41667
 20
3.63167
 30
0.0
 40
0
 41
0
  0
VERTEX
  8
0
 10
4.41
 20
3.63167
 30
0.0
 40
0
 41
0
  0
VERTEX
  8
0
 10
4.41
 20
3.39501
 30
0.0
 40
0
 41
0
  0
SEQEND
 8
0
  0
POLYLINE
  8
0
 62
     0
 66
     1
 10
0
 20
0
 30
0.0
 70
     1
 40
0
 41
0
  0
VERTEX
  8
0
 10
4.41
 20
3.38835
 30
0.0
 40
0
 41
0
  0
VERTEX
  8
0
 10
4.41667
 20
3.38835
 30
0.0
 40
0
 41
0
  0
VERTEX
  8
0
 10
4.41667
 20
3.39501
 30
0.0
 40
0
 41
0
  0
VERTEX
  8
0
 10
4.41
 20
3.39501
 30
0.0
 40
0
 41
0
  0
VERTEX
  8
0
 10
4.41
 20
3.38835
 30
0.0
 40
0
 41
0
  0
SEQEND
 8
0
  0
POLYLINE
  8
0
 62
     0
 66
     1
 10
0
 20
0
 30
0.0
 70
     1
 40
0
 41
0
  0
VERTEX
  8
0
 10
4.41
 20
3.38835
 30
0.0
 40
0
 41
0
  0
VERTEX
  8
0
 10
4.41667
 20
3.38835
 30
0.0
 40
0
 41
0
  0
VERTEX
  8
0
 10
4.41667
 20
3.39501
 30
0.0
 40
0
 41
0
  0
VERTEX
  8
0
 10
4.41
 20
3.39501
 30
0.0
 40
0
 41
0
  0
VERTEX
  8
0
 10
4.41
 20
3.38835
 30
0.0
 40
0
 41
0
  0
SEQEND
 8
0
  0
TEXT
  8
0
 62
     0
 10
0.97
 20
0.95
 30
0.0
 40
0.208333
  1
P
 50
0
  0
TEXT
  8
0
 62
     0
 10
1.07833
 20
0.95
 30
0.0
 40
0.208333
  1
r
 50
0
  0
TEXT
  8
0
 62
     0
 10
1.14828
 20
0.95
 30
0.0
 40
0.208333
  1
od
 50
0
  0
TEXT
  8
0
 62
     0
 10
1.36648
 20
0.95
 30
0.0
 40
0.208333
  1
u
 50
0
  0
TEXT
  8
0
 62
     0
 10
1.47644
 20
0.95
 30
0.0
 40
0.208333
  1
cts ar
 50
0
  0
TEXT
  8
0
 62
     0
 10
1.93278
 20
0.95
 30
0.0
 40
0.208333
  1
e
 50
0
  0
TEXT
  8
0
 62
     0
 10
2.03604
 20
0.95
 30
0.0
 40
0.208333
  1
 i
 50
0
  0
TEXT
  8
0
 62
     0
 10
2.13097
 20
0.95
 30
0.0
 40
0.208333
  1
n
 50
0
  0
TEXT
  8
0
 62
     0
 10
2.24093
 20
0.95
 30
0.0
 40
0.208333
  1
 c
 50
0
  0
TEXT
  8
0
 62
     0
 10
2.37419
 20
0.95
 30
0.0
 40
0.208333
  1
om
 50
0
  0
TEXT
  8
0
 62
     0
 10
2.64906
 20
0.95
 30
0.0
 40
0.208333
  1
p
 50
0
  0
TEXT
  8
0
 62
     0
 10
2.75901
 20
0.95
 30
0.0
 40
0.208333
  1
l
 50
0
  0
TEXT
  8
0
 62
     0
 10
2.80728
 20
0.95
 30
0.0
 40
0.208333
  1
i
 50
0
  0
TEXT
  8
0
 62
     0
 10
2.85554
 20
0.95
 30
0.0
 40
0.208333
  1
an
 50
0
  0
TEXT
  8
0
 62
     0
 10
3.06375
 20
0.95
 30
0.0
 40
0.208333
  1
ce
 50
0
  0
TEXT
  8
0
 62
     0
 10
3.25529
 20
0.95
 30
0.0
 40
0.208333
  1
 w
 50
0
  0
TEXT
  8
0
 62
     0
 10
3.45019
 20
0.95
 30
0.0
 40
0.208333
  1
i
 50
0
  0
TEXT
  8
0
 62
     0
 10
3.49847
 20
0.95
 30
0.0
 40
0.208333
  1
th
 50
0
  0
TEXT
  8
0
 62
     0
 10
3.67836
 20
0.95
 30
0.0
 40
0.208333
  1
 th
 50
0
  0
TEXT
  8
0
 62
     0
 10
3.9049
 20
0.95
 30
0.0
 40
0.208333
  1
e
 50
0
  0
TEXT
  8
0
 62
     0
 10
4.00817
 20
0.95
 30
0.0
 40
0.208333
  1
 f
 50
0
  0
TEXT
  8
0
 62
     0
 10
4.11311
 20
0.95
 30
0.0
 40
0.208333
  1
ol
 50
0
  0
TEXT
  8
0
 62
     0
 10
4.27129
 20
0.95
 30
0.0
 40
0.208333
  1
l
 50
0
  0
TEXT
  8
0
 62
     0
 10
4.31956
 20
0.95
 30
0.0
 40
0.208333
  1
ow
 50
0
  0
TEXT
  8
0
 62
     0
 10
4.57774
 20
0.95
 30
0.0
 40
0.208333
  1
i
 50
0
  0
TEXT
  8
0
 62
     0
 10
4.626
 20
0.95
 30
0.0
 40
0.208333
  1
n
 50
0
  0
TEXT
  8
0
 62
     0
 10
4.73596
 20
0.95
 30
0.0
 40
0.208333
  1
g s
 50
0
  0
TEXT
  8
0
 62
     0
 10
4.96079
 20
0.95
 30
0.0
 40
0.208333
  1
t
 50
0
  0
TEXT
  8
0
 62
     0
 10
5.0274
 20
0.95
 30
0.0
 40
0.208333
  1
an
 50
0
  0
TEXT
  8
0
 62
     0
 10
5.23562
 20
0.95
 30
0.0
 40
0.208333
  1
d
 50
0
  0
TEXT
  8
0
 62
     0
 10
5.34557
 20
0.95
 30
0.0
 40
0.208333
  1
ar
 50
0
  0
TEXT
  8
0
 62
     0
 10
5.51546
 20
0.95
 30
0.0
 40
0.208333
  1
d
 50
0
  0
TEXT
  8
0
 62
     0
 10
5.6254
 20
0.95
 30
0.0
 40
0.208333
  1
(s
 50
0
  0
TEXT
  8
0
 62
     0
 10
5.76858
 20
0.95
 30
0.0
 40
0.208333
  1
):
 50
0
  0
TEXT
  8
0
 62
     0
 10
0.614644
 20
0.698333
 30
0.0
 40
0.208333
  1
A
 50
0
  0
TEXT
  8
0
 62
     0
 10
0.736319
 20
0.698333
 30
0.0
 40
0.208333
  1
SM
 50
0
  0
TEXT
  8
0
 62
     0
 10
1.00967
 20
0.698333
 30
0.0
 40
0.208333
  1
E
 50
0
  0
TEXT
  8
0
 62
     0
 10
1.11131
 20
0.698333
 30
0.0
 40
0.208333
  1
 A
 50
0
  0
TEXT
  8
0
 62
     0
 10
1.27965
 20
0.698333
 30
0.0
 40
0.208333
  1
112.
 50
0
  0
TEXT
  8
0
 62
     0
 10
1.64792
 20
0.698333
 30
0.0
 40
0.208333
  1
1
 50
0
  0
TEXT
  8
0
 62
     0
 10
1.75456
 20
0.698333
 30
0.0
 40
0.208333
  1
9
 50
0
  0
TEXT
  8
0
 62
     0
 10
1.86121
 20
0.698333
 30
0.0
 40
0.208333
  1
.
 50
0
  0
TEXT
  8
0
 62
     0
 10
1.91453
 20
0.698333
 30
0.0
 40
0.208333
  1
3
 50
0
  0
TEXT
  8
0
 62
     0
 10
2.01951
 20
0.698333
 30
0.0
 40
0.208333
  1
-
 50
0
  0
TEXT
  8
0
 62
     0
 10
2.08333
 20
0.698333
 30
0.0
 40
0.208333
  1
200
 50
0
  0
TEXT
  8
0
 62
     0
 10
2.39994
 20
0.698333
 30
0.0
 40
0.208333
  1
8/
 50
0
  0
TEXT
  8
0
 62
     0
 10
2.58493
 20
0.698333
 30
0.0
 40
0.208333
  1
C
 50
0
  0
TEXT
  8
0
 62
     0
 10
2.6966
 20
0.698333
 30
0.0
 40
0.208333
  1
S
 50
0
  0
TEXT
  8
0
 62
     0
 10
2.78993
 20
0.698333
 30
0.0
 40
0.208333
  1
A
 50
0
  0
TEXT
  8
0
 62
     0
 10
2.9116
 20
0.698333
 30
0.0
 40
0.208333
  1
 B
 50
0
  0
TEXT
  8
0
 62
     0
 10
3.07157
 20
0.698333
 30
0.0
 40
0.208333
  1
45.
 50
0
  0
TEXT
  8
0
 62
     0
 10
3.33485
 20
0.698333
 30
0.0
 40
0.208333
  1
4
 50
0
  0
TEXT
  8
0
 62
     0
 10
3.44167
 20
0.698333
 30
0.0
 40
0.208333
  1
-
 50
0
  0
TEXT
  8
0
 62
     0
 10
3.50667
 20
0.698333
 30
0.0
 40
0.208333
  1
0
 50
0
  0
TEXT
  8
0
 62
     0
 10
3.6116
 20
0.698333
 30
0.0
 40
0.208333
  1
8
 50
0
  0
TEXT
  8
0
 62
     0
 10
3.71651
 20
0.698333
 30
0.0
 40
0.208333
  1
 (
 50
0
  0
TEXT
  8
0
 62
     0
 10
3.82644
 20
0.698333
 30
0.0
 40
0.208333
  1
R
 50
0
  0
TEXT
  8
0
 62
     0
 10
3.93975
 20
0.698333
 30
0.0
 40
0.208333
  1
2
 50
0
  0
TEXT
  8
0
 62
     0
 10
4.04467
 20
0.698333
 30
0.0
 40
0.208333
  1
0
 50
0
  0
TEXT
  8
0
 62
     0
 10
4.15126
 20
0.698333
 30
0.0
 40
0.208333
  1
1
 50
0
  0
TEXT
  8
0
 62
     0
 10
4.25618
 20
0.698333
 30
0.0
 40
0.208333
  1
3
 50
0
  0
TEXT
  8
0
 62
     0
 10
4.3611
 20
0.698333
 30
0.0
 40
0.208333
  1
)
 50
0
  0
TEXT
  8
0
 62
     0
 10
4.42439
 20
0.698333
 30
0.0
 40
0.208333
  1
 inc
 50
0
  0
TEXT
  8
0
 62
     0
 10
4.7176
 20
0.698333
 30
0.0
 40
0.208333
  1
ludin
 50
0
  0
TEXT
  8
0
 62
     0
 10
5.14242
 20
0.698333
 30
0.0
 40
0.208333
  1
g
 50
0
  0
TEXT
  8
0
 62
     0
 10
5.24068
 20
0.698333
 30
0.0
 40
0.208333
  1
 U
 50
0
  0
TEXT
  8
0
 62
     0
 10
5.42063
 20
0.698333
 30
0.0
 40
0.208333
  1
pda
 50
0
  0
TEXT
  8
0
 62
     0
 10
5.73886
 20
0.698333
 30
0.0
 40
0.208333
  1
t
 50
0
  0
TEXT
  8
0
 62
     0
 10
5.80714
 20
0.698333
 30
0.0
 40
0.208333
  1
e
 50
0
  0
TEXT
  8
0
 62
     0
 10
5.91043
 20
0.698333
 30
0.0
 40
0.208333
  1
 N
 50
0
  0
TEXT
  8
0
 62
     0
 10
6.09203
 20
0.698333
 30
0.0
 40
0.208333
  1
o
 50
0
  0
TEXT
  8
0
 62
     0
 10
6.20194
 20
0.698333
 30
0.0
 40
0.208333
  1
.
 50
0
  0
TEXT
  8
0
 62
     0
 10
6.25521
 20
0.698333
 30
0.0
 40
0.208333
  1
 2
 50
0
  0
TEXT
  8
0
 62
     0
 10
6.40679
 20
0.698333
 30
0.0
 40
0.208333
  1
 da
 50
0
  0
TEXT
  8
0
 62
     0
 10
6.66004
 20
0.698333
 30
0.0
 40
0.208333
  1
t
 50
0
  0
TEXT
  8
0
 62
     0
 10
6.72832
 20
0.698333
 30
0.0
 40
0.208333
  1
e
 50
0
  0
TEXT
  8
0
 62
     0
 10
6.83161
 20
0.698333
 30
0.0
 40
0.208333
  1
d M
 50
0
  0
TEXT
  8
0
 62
     0
 10
7.16653
 20
0.698333
 30
0.0
 40
0.208333
  1
a
 50
0
  0
TEXT
  8
0
 62
     0
 10
7.26649
 20
0.698333
 30
0.0
 40
0.208333
  1
r
 50
0
  0
TEXT
  8
0
 62
     0
 10
7.33644
 20
0.698333
 30
0.0
 40
0.208333
  1
c
 50
0
  0
TEXT
  8
0
 62
     0
 10
7.42474
 20
0.698333
 30
0.0
 40
0.208333
  1
h 2
 50
0
  0
TEXT
  8
0
 62
     0
 10
7.68629
 20
0.698333
 30
0.0
 40
0.208333
  1
0
 50
0
  0
TEXT
  8
0
 62
     0
 10
7.79121
 20
0.698333
 30
0.0
 40
0.208333
  1
1
 50
0
  0
TEXT
  8
0
 62
     0
 10
7.89613
 20
0.698333
 30
0.0
 40
0.208333
  1
1
 50
0
  0
TEXT
  8
0
 62
     0
 10
0.2
 20
0.456667
 30
0.0
 40
0.195
  1
PR
 50
0
  0
TEXT
  8
0
 62
     0
 10
0.405035
 20
0.456667
 30
0.0
 40
0.195
  1
OD
 50
0
  0
TEXT
  8
0
 62
     0
 10
0.653343
 20
0.456667
 30
0.0
 40
0.195
  1
U
 50
0
  0
TEXT
  8
0
 62
     0
 10
0.778331
 20
0.456667
 30
0.0
 40
0.195
  1
C
 50
0
  0
TEXT
  8
0
 62
     0
 10
0.883319
 20
0.456667
 30
0.0
 40
0.195
  1
T
 50
0
  0
TEXT
  8
0
 62
     0
 10
0.978303
 20
0.456667
 30
0.0
 40
0.195
  1
 S
 50
0
  0
TEXT
  8
0
 62
     0
 10
1.11157
 20
0.456667
 30
0.0
 40
0.195
  1
PE
 50
0
  0
TEXT
  8
0
 62
     0
 10
1.30493
 20
0.456667
 30
0.0
 40
0.195
  1
C
 50
0
  0
TEXT
  8
0
 62
     0
 10
1.40822
 20
0.456667
 30
0.0
 40
0.195
  1
IF
 50
0
  0
TEXT
  8
0
 62
     0
 10
1.54653
 20
0.456667
 30
0.0
 40
0.195
  1
IC
 50
0
  0
TEXT
  8
0
 62
     0
 10
1.69818
 20
0.456667
 30
0.0
 40
0.195
  1
A
 50
0
  0
TEXT
  8
0
 62
     0
 10
1.79654
 20
0.456667
 30
0.0
 40
0.195
  1
T
 50
0
  0
TEXT
  8
0
 62
     0
 10
1.88986
 20
0.456667
 30
0.0
 40
0.195
  1
ION
 50
0
  0
TEXT
  8
0
 62
     0
 10
2.19315
 20
0.456667
 30
0.0
 40
0.195
  1
S
 50
0
  0
ENDSEC
  0
EOF
